Song name
# A B C D E F G H I J K L M N O P Q R S T U V W X Y Z

Grouplove - Borderlines And Aliens tab

(Main/Opening riff)
e|------------------------------------|
B|------------------------------------|
G|------------------------------------|
D|------------0h11-----------0h11-----|
A|-------0h11-----------0h11----------|
E|--0h12-----------0h12---------------|

During Hannah's part(I lost my head in the gate today.So ari-ari-ari-gato.)
e|---------------------------------------------------------------|
B|---------------------------------------------------------------|
G|----------0h11-----------0h11----------------------------------|
D|------0h11----------0h11---------------0h11----------0h11------|
A|--0h11----------0h11---------------0h11---------0h11-----------|
E|-------------------------------0h12---------0h12---------------|


Anyone feel free to use this in making an entire tab :)
Tap to rate this tab
# A B C D E F G H I J K L M N O P Q R S T U V W X Y Z