Song name
# A B C D E F G H I J K L M N O P Q R S T U V W X Y Z

Gruesome Stuff Relish - Faces Of Death tab

Faces of death 
by : xlos_crudos4x@yahoo.com

 Riff 1                    
|--------------------------|-------------------------|
|--------------------------|-------------------------|
|--------------------------|-------------------------|
|---2-----6/5-5--6/5-5-5-x3|--2--------------------x1|x3
|-----1---6/5-5--6/5-5-5---|----1-------3------------|
|-0-----1-4/3-3--4/3-3-3---|0-----1-3-4---4-3-4-2-3--|


Riff 1a(same as riff 1 with slight diff)
|--------------------------|-------------------------|
|--------------------------|-------------------------|
|--------------------------|-------------------------| 
|---2-----5-6-5--5-6-5-5-x3|--2--------------------x1|x1
|-----1---5\6-5--5\6-5-5---|----1-------3------------|
|-0-----1-3\4-3--3\4-3-3---|0-----1-3-4---4-3-4-2-3--|


Riff 2
|-------------------|
|-------------------|
|-------------------|
|-------------------|x1
|-2-3-2----2-3-2----|
|-0-1-0-7"-0-1-0-8"-|


Riff 3(listen closely for this one)
|--------------------------------------------------|
|--------------------------------------------------|
|--------------------------------------------------|
|--------------------------------------------------|x2
|--------------------------------------------------|
|-0"-1"-0"-7"--0"-1"-0"-8"--0"-1"-0"-7"--3"--1"-2"-|


Riff 1 x1
Riff 2 x1
Riff 3 x2
Riff 1a x2

|---|
|---|
|---|
|-2-|
|-2-|
|-0-|
Tap to rate this tab
# A B C D E F G H I J K L M N O P Q R S T U V W X Y Z