Song name
# A B C D E F G H I J K L M N O P Q R S T U V W X Y Z

Gruntruck - Above Me tab

-------------------------------------------------------------------------------
                             ABOVE ME - Gruntruck
-------------------------------------------------------------------------------

Tabbed by: brian_s
Email: branimir.sremec@kc.t-com.hr


INTRO:
e-------0--------0--------0--------0---|
B-------0--------0--------0--------0---|
G--------------------------------------|  2x
D---4--------7--------4--------5-------|
A---4--------7--------4--------5-------|
E---2--------5--------2--------3-------|

e------------0-----------------0-----------------0-----------------0---|
B------------0-----------------0-----------------0-----------------0---|
G----------------------------------------------------------------------|  4x
D---2/4-4-4-------4-4-4/7-7-7-------2-2-2/4-4-4-------4-4-4/5-5-5------|
A---2/4-4-4-------4-4-4/7-7-7-------2-2-2/4-4-4-------4-4-4/5-5-5------|
E---0/2-2-2-------2-2-2/5-5-5-------0-0-0/2-2-2-------2-2-2/3-3-3------|

e--------------------------------------------------------|
B--------------------------------------------------------|
G--------------------------------------------------------|  ---
D---4---4-4-4-4-4----------------4---4-4-4-4-4-----------|     |
A---4---4-4-4-4-4----------------4---4-4-4-4-4-----------|     |
E---2---2-2-2-2-2---0-2-3--------2---2-2-2-2-2---0-2-3---|     |
                                                               |  2x
e--------------------------------------------------------|     |
B--------------------------------------------------------|     |
G--------------------------------------------------------|     |
D---7---7-7-7-7-7---5-5-5--------4---4-4-4-4-4-----------|  ---
A---7---7-7-7-7-7---5-5-5--------4---4-4-4-4-4-----------|
E---5---5-5-5-5-5---3-3-3--------2---2-2-2-2-2---0-2-3---| 


VERSE 1:
e----------------------------------------------------------|
B----------------------------------------------------------|
G----------------------------------------------------------|  4x
D---2/4-4-4----4-4-4/7-7-7----2-2-2/4-4-4----4-4-4/5-5-5---|
A---2/4-4-4----4-4-4/7-7-7----2-2-2/4-4-4----4-4-4/5-5-5---|
E---0/2-2-2----2-2-2/5-5-5----0-0-0/2-2-2----2-2-2/3-3-3---|


e------------0-----------------0-----------------0-----------------0---|
B------------0-----------------0-----------------0-----------------0---|
G----------------------------------------------------------------------|  2x
D---2/4-4-4-------4-4-4/7-7-7-------2-2-2/4-4-4-------4-4-4/5-5-5------|
A---2/4-4-4-------4-4-4/7-7-7-------2-2-2/4-4-4-------4-4-4/5-5-5------|
E---0/2-2-2-------2-2-2/5-5-5-------0-0-0/2-2-2-------2-2-2/3-3-3------|


VERSE 2:
e----------------------------------------------------------|
B----------------------------------------------------------|
G----------------------------------------------------------|  4x
D---2/4-4-4----4-4-4/7-7-7----2-2-2/4-4-4----4-4-4/5-5-5---|
A---2/4-4-4----4-4-4/7-7-7----2-2-2/4-4-4----4-4-4/5-5-5---|
E---0/2-2-2----2-2-2/5-5-5----0-0-0/2-2-2----2-2-2/3-3-3---|


It's alright, I'm doin' fine...
e-------------------------------------------|
B-------------------------------------------|
G-------------------------------------------|  2x
D---4--4-----4--4-----5-5-5-5-5-5-5-5-5-5---|
A---4--4-----4--4-----5-5-5-5-5-5-5-5-5-5---|
E---2--2-----2--2-----3-3-3-3-3-3-3-3-3-3---|


SOLO:
The solo is played over the verse riff
e-------------------------|
B---7---7h8p7-----8-7br---|
G-------------9-----------|  3x
D-------------------------|
A-------------------------|
E-------------------------|

e----------8-7----12-11----14-15-12---|
B---8-7-------------------------------|
G-------------------------------------|
D-------------------------------------|
A-------------------------------------|
E-------------------------------------|

e---14---14----14-14-14/15-15-15----14---12/14---14---|
B-----------------------------------------------------|
G-----------------------------------------------------| 4x
D-----------------------------------------------------|
A-----------------------------------------------------|
E-----------------------------------------------------|


CHORUS:
e---------------------------------------------------------------------|
B---------------------------------------------------------------------|
G---------------------------------------------------------------------|  2x
D---4-4-4-4-4-4-4-4-4-4-4-4-4-4--7-7-7-7-7-7-7-5--4-4-4-4-4-4-4-4-4---|
A---4-4-4-4-4-4-4-4-4-4-4-4-4-4--7-7-7-7-7-7-7-5--4-4-4-4-4-4-4-4-4---|
E---2-2-2-2-2-2-2-2-2-2-2-2-2-2--5-5-5-5-5-5-5-3--2-2-2-2-2-2-2-2-2---|


VERSE 3:
e------------0-----------------0-----------------0-----------------0---|
B------------0-----------------0-----------------0-----------------0---|
G----------------------------------------------------------------------|  4x
D---2/4-4-4-------4-4-4/7-7-7-------2-2-2/4-4-4-------4-4-4/5-5-5------|
A---2/4-4-4-------4-4-4/7-7-7-------2-2-2/4-4-4-------4-4-4/5-5-5------|
E---0/2-2-2-------2-2-2/5-5-5-------0-0-0/2-2-2-------2-2-2/3-3-3------|


It's alright, I'm doin' fine...
e-------------------------------------------|
B-------------------------------------------|
G-------------------------------------------|  2x
D---4--4-----4--4-----5-5-5-5-5-5-5-5-5-5---| 
A---4--4-----4--4-----5-5-5-5-5-5-5-5-5-5---|
E---2--2-----2--2-----3-3-3-3-3-3-3-3-3-3---|



SOLO:
It's the same as the one before


CHORUS:
e---------------------------------------------------------------------|
B---------------------------------------------------------------------|
G---------------------------------------------------------------------|  4x
D---4-4-4-4-4-4-4-4-4-4-4-4-4-4--7-7-7-7-7-7-7-5--4-4-4-4-4-4-4-4-4---|
A---4-4-4-4-4-4-4-4-4-4-4-4-4-4--7-7-7-7-7-7-7-5--4-4-4-4-4-4-4-4-4---|
E---2-2-2-2-2-2-2-2-2-2-2-2-2-2--5-5-5-5-5-5-5-3--2-2-2-2-2-2-2-2-2---|


2nd guitar plays this little figure:
e------------------|
B---7------7h8p7---|
G------------------|
D------------------|
A------------------|
E------------------|




Br  =  bend release
/   =  slide
h   =  hammer-on
p   =  pull-off
Tap to rate this tab
# A B C D E F G H I J K L M N O P Q R S T U V W X Y Z