Song name
# A B C D E F G H I J K L M N O P Q R S T U V W X Y Z

Gruntruck - Buried tab

-------------------------------------------------------------------------------
                              BURIED - Gruntruck
-------------------------------------------------------------------------------

Tabbed by: brian_s
Email: branimir.sremec@kc.t-com.hr


INTRO:
e-----------------------------------|----------------------------------|
B-----------------------------------|----------------------------------|
G-----------------------------------|----------------------------------|  4x
D-----------------------------------|----------------------------------|
A-----------------------------------|----------------------------------|
E---2-3-2-0---3-2-0----2--3-2-0-2---|---2-3-2-0---3-2-0----2--3-2--0---|

e----------------------------------------|
B----------------------------------------|
G---4--4-4-4--4-4-4----3--3-3-3--3-3-3---|  4x
D---2--2-2-2--2-2-2----1--1-1-1--1-1-1---|
A----------------------------------------|
E----------------------------------------|


VERSE 1:
e-----------------------------------|---------------------------------|
B-----------------------------------|---------------------------------|
G-----------------------------------|---------------------------------|  4x
D-----------------------------------|---------------------------------|
A-----------------------------------|---------------------------------|
E---2-3-2-0---3-2-0----2--3-2-0-2---|---2-3-2-0---3-2-0----2-3-2--0---|

e----------------------|
B----------------------|
G----------------------|  10x
D----------------------|
A---4-5-4----4-5-4-2---|
E---2-3-2----2-3-2-0---|


CHORUS:
e-------------------------------|
B-------------------------------|
G-------------------------------|  4x
D---4-4-4-4-4-4--3--3-3-3-3-3---|
A---4-4-4-4-4-4--3--3-3-3-3-3---|
E---2-2-2-2-2-2--1--1-1-1-1-1---|


INTERLUDE:
e-------------------------------|
B-------------------------------|
G-------------------------------|  4x
D-------------------------------|
A---4-5-4------------4-5-4--2---|
E---2-3-2---/14b-----2-3-2--0---|


VERSE 2:
e----------------------|
B----------------------|
G----------------------|  4x
D----------------------|
A---4-5-4----4-5-4-2---|
E---2-3-2----2-3-2-0---|


CHORUS:
e-------------------------------|
B-------------------------------|
G-------------------------------|  4x
D---4-4-4-4-4-4---3-3-3-3-3-3---|
A---4-4-4-4-4-4---3-3-3-3-3-3---|
E---2-2-2-2-2-2---1-1-1-1-1-1---|


VERSE 3:
e-----------------------------------|---------------------------------|
B-----------------------------------|---------------------------------|
G-----------------------------------|---------------------------------|  4x
D-----------------------------------|---------------------------------|
A-----------------------------------|---------------------------------|
E---2-3-2-0---3-2-0----2--3-2-0-2---|---2-3-2-0---3-2-0----2-3-2--0---|


OUTRO:
e------------------------------------|
B------------------------------------|
G---4-4-4-4-4-4-4----3-3-3-3-3-3-3---|  9x
D---2-2-2-2-2-2-2----1-1-1-1-1-1-1---|
A------------------------------------|
E------------------------------------|


/   =  slide
b   =  bend
Tap to rate this tab
 
# A B C D E F G H I J K L M N O P Q R S T U V W X Y Z