Song name
# A B C D E F G H I J K L M N O P Q R S T U V W X Y Z

Gruntruck - Body Farm tab

Artista: Gruntruck
Pista:   Body Farm
Album:   Push

Drop D (D A D G B e)

comments: grunge_09@rocketmail.com


intro:

e)-------------------------|
B)-------------------------|
G)-------------------------|
D)-------------------------|
A)---5---------------------|
D)-5------7------7/6---7/6-|

verse:

e)-------------------------|
B)-------------------------|
G)-------------------------|
D)-3--101-33-234-6---------|
A)-3--101-33-234-6---------|
D)-3--101-33-234-6---------|

Order:

intro X 12
verse X 2
intro X 12
verse X 4
intro X 8 (During the solo)
intro X 20
verse X 8
intro X 1
Tap to rate this tab
# A B C D E F G H I J K L M N O P Q R S T U V W X Y Z