Song name
# A B C D E F G H I J K L M N O P Q R S T U V W X Y Z

Gruntruck - Tribe tab

Grunge song... great one

Intro
Gt.1
e|---------------------------|
B|---------------------------|
G|---------------------------| x8
D|---------------------------|
A|-----7----8----7--7--8-----|
D|-0000-0000-0000-00-00-006~-|

On the 5th time, gt.2 comes in with this.
e|------------|
B|------------|
G|------------| x4
D|------------|
A|-7~---7~-5~-|
D|------------|

Verse
e|----------------------------|
B|----------------------------|
G|----------------------------|
D|-3-0-3-5-6-5--0-3-0-3-5-5-5-|
A|-3-0-3-5-6-5--0-3-0-3-5-5-5-|
D|-3-0-3-5-6-5--0-3-0-3-5-5-5-|

Chorus
e|------------|
B|------------|
G|------------|
D|-3--2--5--5-|
A|-3--2--5--5-|
D|-3--2--5--5-|

Solo (other guitar plays chorus)
e|----------------------|
B|----------------------|
G|----------------------|
D|-/3-2------/3-2-/5~~~-|
A|-----/5~~~------------|
D|----------------------|

Outro
e|--------------------|
B|--------------------|
G|--------------------|
D|-3--2---------------|
A|-3--2------7--8-----|
D|-3--2--0000-00-006~-|

That's it pretty much. Really easy yet badass song.
Tap to rate this tab
 
# A B C D E F G H I J K L M N O P Q R S T U V W X Y Z