Guitaretab - guitar tabs
Song name
# A B C D E F G H I J K L M N O P Q R S T U V W X Y Z

Gruntruck - Machine Action tab

-------------------------------------------------------------------------------
                            MACHINE ACTION - Gruntruck
-------------------------------------------------------------------------------

Tabbed by: brian_s
Email: branimir.sremec@kc.t-com.hr


INTRO:
e-------------------------------------------|
B-------0---------0---------0---------0-----|
G---------0---------0---------0---------0---| --- 
D-----2---------2---------2---------2-------|    |
A-------------------------------------------|    |
E---0---------0---------0---------0---------|    |
                                                 |  4x
e-------------------------------------------|    |
B-------1---------1---------1---------1-----|    |
G---------0---------0---------0---------0---|    |
D-----2---------2---------2---------2-------| ---
A-------------------------------------------|
E---0---------0---------0---------0---------|

e------------------------------|
B------------------------------|
G------------------------------|   16x
D------3-3-3-3-3-3-3-3p2p0-----|
A--------------------------3---|
E---0--------------------------|

e---------------------------------------|
B---------------------------------------|
G---9-9h1010p9-------9---9h10-10p9---|
D---------------------------------------|
A---------------------------------------|
E---------------------------------------|


VERSE 1:
e-------------------------------------------|
B-------0---------0---------0---------0-----|
G---------0---------0---------0---------0---| --- 
D-----2---------2---------2---------2-------|    |
A-------------------------------------------|    |
E---0---------0---------0---------0---------|    |
                                                 |   4x
e-------------------------------------------|    |
B-------1---------1---------1---------1-----|    |
G---------0---------0---------0---------0---|    |
D-----2---------2---------2---------2-------| ---
A-------------------------------------------|
E---0---------0---------0---------0---------|

e------------------------------|
B------------------------------|
G------------------------------|   8x
D------3-3-3-3-3-3-3-3p2p0-----|
A--------------------------3---|
E---0--------------------------|

e---------------------------------------------|
B---------------------------------------------|
G---9-9-9-9---9h10--10------9-9-9-9---9h10---|
D--------------------------------------------|
A--------------------------------------------|
E--------------------------------------------|


VERSE 2:
e-------------------------------------------|
B-------0---------0---------0---------0-----|
G---------0---------0---------0---------0---| --- 
D-----2---------2---------2---------2-------|    |
A-------------------------------------------|    |
E---0---------0---------0---------0---------|    |
                                                 |   4x
e-------------------------------------------|    |
B-------1---------1---------1---------1-----|    |
G---------0---------0---------0---------0---|    |
D-----2---------2---------2---------2-------| ---
A-------------------------------------------|
E---0---------0---------0---------0---------|

e------------------|
B------------------|
G---5----4----3----|
D---5----4----3----|  4x
A---3----2----1----|
E------------------|


SOLO:
03:09
e--------------------------------------|
B--------------------------------------|
G---9----9/12------12/10----9-----10---|   2x
D--------------------------------------|
A--------------------------------------|
E--------------------------------------|
[ Tab from: http://www.guitaretab.com/g/gruntruck/93648.html ]
e---------------------------------------------------|
B---------------------------------------------------|
G---7/9----9-9-9/10----10-10-10/12----12-12-12/10---| ---
D---------------------------------------------------|    |
A---------------------------------------------------|    |
E---------------------------------------------------|    |
                                                         |   2x
e-----------------------------------------------|        |
B-----------------------------------------------|        | 
G---10-10-10/9----9-9-9/7----7-7-7/9----9-9-9---|        |
D-----------------------------------------------| -------
A-----------------------------------------------|
E-----------------------------------------------|

03:24   PM....................
e---------------------------------|
B---------------------------------|
G---------------------------------|   2x
D---0h2---2-2-2----2-2-2-2/3-/2---|
A---------------------------------|
E---------------------------------|

e------------------------------------------|
B------------------------------------------|
G------------------------------------------|
D---0/2----2-2-2/3----3-3-3/5----5-5-5/3---|
A------------------------------------------|
E------------------------------------------|
                                                 
e--------------------------------------------|
B--------------------------------------------|
G--------------------------------------------|
D---3-3-3/2----2-2-2/0----0-0-0/2----2-2-2---|
A--------------------------------------------|
E--------------------------------------------|
  
    PM..........................      
e---------------------------------|
B---------------------------------|
G---------------------------------|   2x
D---0h2---2-2-2----2-2-2-2/3-/2---|
A---------------------------------|
E---------------------------------|

e------------------------------------------|
B------------------------------------------|
G------------------------------------------|
D---0/2----2-2-2/3----3-3-3/5----5-5-5/3---|
A------------------------------------------|
E------------------------------------------|
                                                 
e--------------------------------------------|
B--------------------------------------------|
G--------------------------------------------|
D---3-3-3/2----2-2-2/0----0-0-0/2----2-2-2---|
A--------------------------------------------|
E--------------------------------------------|

03:40
e------------------------------------------------------------------|
B------------------------------------------------------------------|
G---9---9/12---12/10---9----10--------9---9/12---12/10---9----10---|   4x
D------------------------------------------------------------------|
A------------------------------------------------------------------|
E------------------------------------------------------------------|


VERSE 3:
e-------------------------------------------|
B-------0---------0---------0---------0-----|
G---------0---------0---------0---------0---| --- 
D-----2---------2---------2---------2-------|    |
A-------------------------------------------|    |
E---0---------0---------0---------0---------|    |
                                                 |   4x
e-------------------------------------------|    |
B-------1---------1---------1---------1-----|    |
G---------0---------0---------0---------0---|    |
D-----2---------2---------2---------2-------| ---
A-------------------------------------------|
E---0---------0---------0---------0---------|

e------------------|
B------------------|
G---5----4----3----|
D---5----4----3----|  4x
A---3----2----1----|
E------------------|

e------------------------------|
B------------------------------|
G------------------------------|   16x
D------3-3-3-3-3-3-3-3p2p0-----|
A--------------------------3---|
E---0--------------------------|




.   =  palm mute
/   =  slide
h   =  hammer-on
p   =  pull-off
Related for Machine Action tab
Machine Action chords by Gruntruck