Guitaretab - guitar tabs
Song name
# A B C D E F G H I J K L M N O P Q R S T U V W X Y Z

Gruntruck - Racked tab

-------------------------------------------------------------------------------
                              RACKED  - Gruntruck
-------------------------------------------------------------------------------

Tabbed by: brian_s
Email: branimir.sremec@kc.t-com.hr


INTRO:
e---------------------------------------|
B---------------------------------------|
G---------------------------------------|  3x
D---4-4-4---4-4-4---4-4-4---4-4-4---5---|
A---4-4-4---4-4-4---4-4-4---4-4-4---5---|
E---2-0-2---2-0-2---2-0-2---2-0-2---3---|

e---------------------------------------------|
B---------------------------------------------|
G---------------------------------------------|  
D---4-4-4---4-4-4---4-4-4---4-4-4---5-4-3-3---|
A---4-4-4---4-4-4---4-4-4---4-4-4---5-4-3-3---|
E---2-0-2---2-0-2---2-0-2---2-0-2---3-2-1-1---|


VERSE 1:
e-----------------|------------|
B----- play 9x ---|------------|
G-----------------|------------|  4x
D---4-4-4---------|---5-4-3-3--|
A---4-4-4---------|---5-4-3-3--|
E---2-0-2---------|---3-2-1-1--|


BREAK:
1st guitar plays the intro 

2nd guitar plays this:
e-------------------------------|
B-------------------------------|
G-------------------------------|  4x
D-------4-2-------------4-2-----|
A-----------3-2-------------3---|
E---2-3------------2--3---------|


VERSE 2:
Play verse riff 2x


CHORUS:
e------------------------------------------------------|
B------------------------------------------------------|
G---5-5-5-5-5-5-5-5-5-5-5-5-5--6-6-6-6-6-6-6-6---------|  
D---5-5-5-5-5-5-5-5-5-5-5-5-5--6-6-6-6-6-6-6-6--6--5---|
A---3-3-3-3-3-3-3-3-3-3-3-3-3--4-4-4-4-4-4-4-4--6--5---|
E-----------------------------------------------4--3---|
[ Tab from: http://www.guitaretab.com/g/gruntruck/94763.html ]
e---------------------------------------------------------------|
B---------------------------------------------------------------|
G---5-5-5-5-5-5-5-5-5-5-5-5-5--6-6-6-6-6-6-6-6------------------|  
D---5-5-5-5-5-5-5-5-5-5-5-5-5--6-6-6-6-6-6-6-6--7-7-7-7-7-7-7---|
A---3-3-3-3-3-3-3-3-3-3-3-3-3--4-4-4-4-4-4-4-4--7-7-7-7-7-7-7---|
E-----------------------------------------------5-5-5-5-5-5-5---|


VERSE 3:
Play verse riff 4x


CHORUS:
Play chorus 1x


INTERLUDE:
e-----------------------0---------0-------|
B-------------------------0---------0-----|
G---------------------------0---------0---|  4x
D-----------------------------------------|
A---5-4-5-4---/8-------------------------|
E---3-2--3-2---------10--------9----------|


BREAK:
1st guitar plays the intro 

2nd guitar plays this:          use a wah wah pedal
e--------------------------------------------------------------------|
B--------------------------------------------------------------------|
G--------------------------------------------------------------------|  2x
D-------4-2-----------4-2-----------4-2----2-5b-5b-5b-5b-5b-5b-5b---|
A-----------3-------------3--------------3---------------------------|
E---2-3----------2--3-----------2-3----------------------------------|


VERSE 4:
Play verse riff 4x


CHORUS:
Play chorus 2x


2nd guitar plays this at the end of the chorus:
e---------------------------------|
B---------------------------------|
G---------------------------------|
D---5h7-5h7-5h7-5h7-5h7-5h7-5h7---|
A---------------------------------|
E---------------------------------|


e-----------|
B-----------|
G-----------|  
D---4-4-4---|
A---4-4-4---|
E---2-0-2---|


/  =  slide
b  =  bend
h  =  hammer on
Related for Racked tab