Guitaretab - guitar tabs
Song name
# A B C D E F G H I J K L M N O P Q R S T U V W X Y Z

Grupo Choque - Tres Marcianos tab

Echo por: Gast?n Villamea

Tres marcianos-Grupo Choque

INTRODUCCION
E --5---4---3---2----|
B --5---4---3---2----|
G --6---5---4---3----|
D --7---6---5---4----|
A --7---6---5---4----|
E --5---4---3---2----|


E --5---5---5---5---4---4---4---4---3---3---3---3---2---2---2---2---|
B --5---5---5---5---4---4---4---4---3---3---3---3---2---2---2---2---|
G --6---6---6---6---5---5---5---5---4---4---4---4---3---3---3---3---|
D --7---7---7---7---6---6---6---6---5---5---5---5---4---4---4---4---|
A --7---7---7---7---6---6---6---6---5---5---5---5---4---4---4---4---|
E --5---5---5---5---4---4---4---4---3---3---3---3---2---2---2---2---|

E --5---5---5---5---4---4---4---4---3---3---3---3---2---2---2---2---|
B --5---5---5---5---4---4---4---4---3---3---3---3---2---2---2---2---|
G --6---6---6---6---5---5---5---5---4---4---4---4---3---3---3---3---|
D --7---7---7---7---6---6---6---6---5---5---5---5---4---4---4---4---|
A --7---7---7---7---6---6---6---6---5---5---5---5---4---4---4---4---|
E --5---5---5---5---4---4---4---4---3---3---3---3---2---2---2---2---|

E --5---5---5---5---4---4---4---4---3---3---3---3---2---2---2---2---|
B --5---5---5---5---4---4---4---4---3---3---3---3---2---2---2---2---|
G --6---6---6---6---5---5---5---5---4---4---4---4---3---3---3---3---|
D --7---7---7---7---6---6---6---6---5---5---5---5---4---4---4---4---|
A --7---7---7---7---6---6---6---6---5---5---5---5---4---4---4---4---|
E --5---5---5---5---4---4---4---4---3---3---3---3---2---2---2---2---|
[ Tab from: http://www.guitaretab.com/g/grupo-choque/39246.html ]
E --5---5---5---5---4---4---4---4---3---3---3---3---2---2---2---2---|
B --5---5---5---5---4---4---4---4---3---3---3---3---2---2---2---2---|
G --6---6---6---6---5---5---5---5---4---4---4---4---3---3---3---3---|
D --7---7---7---7---6---6---6---6---5---5---5---5---4---4---4---4---|
A --7---7---7---7---6---6---6---6---5---5---5---5---4---4---4---4---|
E --5---5---5---5---4---4---4---4---3---3---3---3---2---2---2---2---|

E --5---5---5---5---4---4---4---4---3---3---3---3---2---2---2---2---|
B --5---5---5---5---4---4---4---4---3---3---3---3---2---2---2---2---|
G --6---6---6---6---5---5---5---5---4---4---4---4---3---3---3---3---|
D --7---7---7---7---6---6---6---6---5---5---5---5---4---4---4---4---|
A --7---7---7---7---6---6---6---6---5---5---5---5---4---4---4---4---|
E --5---5---5---5---4---4---4---4---3---3---3---3---2---2---2---2---|

E --5---5---5---5---4---4---4---4---3---3---3---3---2---2---2---2---|
B --5---5---5---5---4---4---4---4---3---3---3---3---2---2---2---2---|
G --6---6---6---6---5---5---5---5---4---4---4---4---3---3---3---3---|
D --7---7---7---7---6---6---6---6---5---5---5---5---4---4---4---4---|
A --7---7---7---7---6---6---6---6---5---5---5---5---4---4---4---4---|
E --5---5---5---5---4---4---4---4---3---3---3---3---2---2---2---2---|

E --5---4---3---2----2---3---4---5--------5---5---5---5-------5---|
B --5---4---3---2----2---3---4---5------8---7---6---5---7-5-7-----|
G --6---5---4---3----3---4---5---6--------------------------------|
D --7---6---5---4----4---5---6---7--------------------------------|
A --7---6---5---4----4---5---6---7--------------------------------|
E --5---4---3---2----2---3---4---5--------------------------------|
Related for Tres Marcianos tab
×
Tres Marcianos