Song name
# A B C D E F G H I J K L M N O P Q R S T U V W X Y Z

Grupo De Baile - Patchouly chords

Highlighted       Show chord diagrams
|-----------------------------------------|
|Artist: Grupo de Baile                   |
|Album: Patchouly/Já Rockas à Toa(single) |
|Title: Patchouly                         |
|Year: 1981                               |
|Record Label: Velentim de Carvalho       |
|-----------------------------------------|

(/) Slide Up  (\) Slide Down  (h) Hammer On  (p) Pull Off  (b) Bend (r) Release (v) Vibrato


Intro 1:

E|-------------------------------------------|
B|-----------------------12--10--12--10------|
G|--9--11--9--11--12--9------------------12--|
D|-------------------------------------------|
A|-------------------------------------------|
E|-------------------------------------------|

Intro 2:

E|---------------------------------------------------------|
B|--12--10--12--10------12--10--12--10---------------------|
G|------------------12------------------12------9v----11v--|
D|---------------------------------------------------------|
A|---------------------------------------------------------|
E|---------------------------------------------------------|

  Intro:
C - D - A - Em - D - C
C - D - A - Em - DC - A

EmCD (2x)

Em           C                           Em
Ai que bem cheiras, que bem cheiras dos sovacos,
          C            D             Em
As meias rotas e os sapatos descascados,
        C            D             Em
Nas avenidas ainda fazes os teu engates,
       C          D         Em
E tudo graças ao perfume Patchouly...


C   D  Em
Oo oo ooh! (4x)


      C            D             Em
Essas miúdas das escolas secundárias,
           C           D          Em
Com cheiro a leite e o soquete no artelho.
       C                   D      Em
Ficam maradas com o teu charme perfumado, yeah!
C          D     Em
O teu perfume Patchouly...


C    D   Em
Ooo oo ooh! (4x)

______________________
|Repeat intro 1 and 2|
______________________

Em      C         D            Em
Essas miúdas das escolas secundárias
         C              D         Em
Já fumam ganzas na paragem do eléctrico,
      C                     D           Em
Com essas barbas com mais buço que pintelho,
           C           D            Em
Não dizem duas quando estão ao pé de ti...


C    D   Em
Oo oo ooh (4x)


C                 D
O que elas gostam é de cheirar
Em          D         C
O teu perfume Patchouly!
C                 D
O que elas gostam é de cheirar
Em          D         C           A - E - D - C
O teu perfume Patchouly!
Tap to rate this tab
# A B C D E F G H I J K L M N O P Q R S T U V W X Y Z