Song name
# A B C D E F G H I J K L M N O P Q R S T U V W X Y Z

Guano Apes - Maria tab

Band - Guano Apes		
Song - Maria

key:
!   - rapid picking
/ \ - slide accordingly

Chorus:
E-|-------|
B-|---3---|
G-|---4---|
D-|---4---|
A-|---2---|
E-|---2---|
        
Verse:
E-|-------------------|
B-|-------------------|
G-|-------------------|
D-|--4----4--4--4/5---|
A-|--2----2--2--2/3---|
E-|--2----2--2--2/3---|

end of 2nd verse:
E-|------------------|
B-|--7!---/8!--/10!--|
G-|------------------|
D-|------------------|
A-|------------------|
E-|------------------|
  
bridge:
E-|-----------0--------------------0---------------|
B-|-------------3---------------------3------------|
G-|--------------------------------------4---------|
D-|------4---------4--------4----------------------|
A-|---2-------------------2-------------------0h2--|
E-|---2--------------------------------------------|

during the outro there's this lead overdub:
E-|-----------------|
B-|---7/8-----7/8---|
G-|-----------------|
D-|---4/5-----4/5---|
A-|-----------------|
E-|-----------------|


lyrics:

maria, maria, ....

raw muscles in you
and you kill for the thrill to get into this
might not be sure
to get into the sin for the human race

maria, maria, ....

raw muscles in you
and you kill for the thrill to get into this
might not be sure
to get into the sin for the human race

give it up, give up
when i give it up
Tap to rate this tab
 
# A B C D E F G H I J K L M N O P Q R S T U V W X Y Z