Guano Apes - Open Your Eyes tab

-----------------------------------------------------------------------------
			     Open Your Eyes - Guano Apes
-----------------------------------------------------------------------------
Tabbed by: route_desperado
Email: metalfreak@hotmail.com

Tuning: Standard

Note: I've only written the chords

Intro:

e|------------------------------------------|
B|------------------------------------------|
G|-9-4-5-7-9--------------------------------|
D|-9-4-5-7-9--------------------------------| x1
A|-7-2-3-5-7--------------------------------|
E|------------------------------------------|

e|------------------------------------------|
B|------------------------------------------|
G|---4-5-7-9--------------------------------|
D|-2-4-5-7-9--------------------------------| x3
A|-2-2-3-5-7--------------------------------|
E|-0----------------------------------------|

Verse:
The verse contains some minor effect stuff but it's mainly the bass playing,

Ref:

(now it's time to...)
e|------------------------------------------|
B|------------------------------------------|
G|-5----------------------------------------|
D|-5-4-2------------------------------------|
A|-3-4-2------------------------------------|
E|---2-0------------------------------------|

e|------------------------------------------|
B|------------------------------------------|
G|--4-5-7-9---------------------------------|
D|--4-5-7-9---------------------------------|
A|--2-3-5-7---------------------------------|
E|------------------------------------------|

e|------------------------------------------|
B|------------------------------------------|
G|---4-5-7-9--------------------------------|
D|-2-4-5-7-9--------------------------------| x3
A|-2-2-3-5-7--------------------------------|
E|-0----------------------------------------|

Verse: 
same business as the last verse

Ref:

e|------------------------------------------|
B|------------------------------------------|
G|-5----------------------------------------|
D|-5-4-2------------------------------------|
A|-3-4-2------------------------------------|
E|---2-0------------------------------------|

e|------------------------------------------|
B|------------------------------------------|
G|--4-5-7-9---------------------------------|
D|--4-5-7-9---------------------------------|
A|--2-3-5-7---------------------------------|
E|------------------------------------------|

e|------------------------------------------|
B|------------------------------------------|
G|---4-5-7-9--------------------------------|
D|-2-4-5-7-9--------------------------------| x3
A|-2-2-3-5-7--------------------------------|
E|-0----------------------------------------|

Break/Solo

e|------------------------------------------|
B|------------------------------------------|
G|------------------------------------------|
D|-2----------------------------------------|
A|-2----------------------------------------|
E|-0----------------------------------------|

Ref:

e|------------------------------------------|
B|------------------------------------------|
G|-5----------------------------------------|
D|-5-4-2------------------------------------|
A|-3-4-2------------------------------------|
E|---2-0------------------------------------|

e|------------------------------------------|
B|------------------------------------------|
G|--4-5-7-9---------------------------------|
D|--4-5-7-9---------------------------------|
A|--2-3-5-7---------------------------------|
E|------------------------------------------|

e|------------------------------------------|
B|------------------------------------------|
G|---4-5-7-9--------------------------------|
D|-2-4-5-7-9--------------------------------| x3
A|-2-2-3-5-7--------------------------------|
E|-0----------------------------------------|

Ending:

e|------------------------------------------|
B|------------------------------------------|
G|------------------------------------------|
D|-2----------------------------------------|
A|-2----------------------------------------|
E|-0----------------------------------------|

email me for corrections :)
Tap to rate this tab
 
# A B C D E F G H I J K L M N O P Q R S T U V W X Y Z