Song name
# A B C D E F G H I J K L M N O P Q R S T U V W X Y Z

Guano Apes - Living In A Lie tab

Guano Apes - Living In A Lie, Album: Don't Give Me Names

Intro/Verse:
eb|------------------|-------------------|-------------|--------------|
Bb|------------------|-------------------|-------------|------------5-|
Gb|------------------|-------------------|-------------|------------x-|
Db|-----5-----5-4----|------5-----5-4----|---5-----5-4-|---5--------5-|
Ab|-0h2---2/3-----3--|--0h2---2/3-----3--|-2---2/3-----|-2---2/3-2----|
Eb|------------------|-------------------|-------------|--------------|

Bridge:
eb|-x-x-----x-----| listen to the song to get the right rhythm !!!
Bb|-x-x-8-8-x-8---|
Gb|-x-x-7-7-x-7---|
Db|-x-x-5-5-x-5---|
Ab|-x-x-----x-----|
Eb|---------------|

Chorus: C5,B5

The tab is probably 90% correct ;). I'm not sure about the ending part in the 

verse with the higher notes. Please rate and leave a comment. :)

Tap to rate this tab
 
# A B C D E F G H I J K L M N O P Q R S T U V W X Y Z