Song name
# A B C D E F G H I J K L M N O P Q R S T U V W X Y Z

Guano Apes - Mine All Mine tab

Help us improve GuitareTab! Take a short survey!
Mine all Mine
Guano Apes

Tuning Drop D :(d-a-d-g-b-e

Intro : (acoustic)

|---------------------------------------------------|
|---------------------------------------------------|
|---------------------------------------------------|
|-55555-55555-5555-66666-66666-6666-3333-3-10-333-6-|
|-55555-55555-5555-66666-66666-6666-3333-3-10-333-6-|
|-55555-55555-5555-66666-66666-6666-3333-3-10-333-6-|   (2x)


|----------------------|
|----------------------|
|----------------------|
|-5-5555-----5-5555----|
|-5-5555-----5-5555----|
|-5-5555-----5-5555----|




Verse: (electric)

|--------------------------------|
|--------------------------------|
|--------------------------------|
|---------10~~----10-----9~~---9-|
|---10~-----10--10-----9----9--9-|
|-10~---10----10-----9~-9----9---|

Verse Part 2 : (acoustic)

|-3--3--3--3--3--4--4--4--4--4---|
|--4--4--4--4--4--4--4--4--4--4--|
|---5--5--5--5--5--5--5--5--5--5-|	
|--------------------------------|
|--------------------------------|
|--------------------------------|


Chorus: (acoustic)

|---------------------------------------------------|
|---------------------------------------------------|
|---------------------------------------------------|
|-55555-55555-5555-66666-66666-6666-3333-3-10-111-6-|
|-55555-55555-5555-66666-66666-6666-3333-3-10-111-6-|
|-55555-55555-5555-66666-66666-6666-3333-3-10-111-6-|   


Its not perfect but a lot easier to play than the other tabs,

 greets Fr3nky
Related for Mine All Mine tab