Song name
# A B C D E F G H I J K L M N O P Q R S T U V W X Y Z

Guano Apes - Innocent Greed tab

Band - Guano Apes		
Song - Innocent Greed

Intro:

 D#7   D#7    B7   C#7
|-x-| |-x-| |-x-| |-x-|
|-x-| |-x-| |-x-| |-x-|
|-8-| |-8-| |-x-| |-6-|
|-8-| |-8-| |-9-| |-6-|
|-6-| |-6-| |-9-| |-4-|
|-6-| |-6-| |-7-| |-4-|


Verse:
G|-------------------------------------------------------------|
D|-------------------------------------------------------------|
A|---6-----------4---6-----------4---6-----------4---6---6---4-|
E|-------------------------------------------------------------|

e|-------------------------------------------------------------|
B|-------------------------------------------------------------|
G|-------------------------------20----------------------------|
D|----------------20----------------------------20-------------|
A|--18---------------------------------------------------------|
E|-------------------------------------------------------------|

G|-------------------------------------------------------------|
D|-------------------------------------------------------------|
A|---6-----------4---6-----------4---6-----------4---6---6---4-|
E|-------------------------------------------------------------|

e|-------------------------------------------------------------|
B|-------------------------------------------------------------|
G|-------------------------------18----------------------------|
D|----------------18----------------------------18-------------|
A|--16---------------------------------------------------------|
E|-------------------------------------------------------------|


Your ground is deep
my greed is deeper
I can see everything
nothing's between us
you will see through my eyes
I will see through your veins
don't you wanna listen
what the cause is

e|-------------------------------------------------------------|
B|-------------------------------------------------------------|
G|-------------------------------------------------------------|
D|-------------------------------------------------------------|
A|---6-----------4---6-----------4---6-----------4---6---6---4-|
E|-------------------------------------------------------------|

You hate!! 
(I will see it through your eyes)
Too late!! (I will see it through your veins)
Awake!!
Take me to the end of it

Chorus:
 D#7    F7     D#7     F7     B7    A#7    C#7    C#7
|--x-| |--x-| |--x-| |--x-| |--x-| |--x-| |--x-| |--x-|
|--x-| |--x-| |--x-| |--x-| |--x-| |--x-| |--x-| |--x-|
|--8-| |-10-| |--8-| |-10-| |-16-| |-15-| |-18-| |-18-|
|--8-| |-10-| |--8-| |-10-| |-16-| |-15-| |-18-| |-18-|
|--6-| |--8-| |--6-| |--8-| |-14-| |-13-| |-16-| |-16-|
|--6-| |--8-| |--6-| |--8-| |-14-| |-13-| |-16-| |-16-|

Rage I feel ashamed now
'cos I can see deep in me nothing
Rage I feel ashamed now
'cos I can see deep in you nothing

you've hurt me twice
you've shared it
ignored my pain
I'm scared of it
You will walk into my life
and I'll promise you the same
don't you wanna listen
what your love is

You hate!! 
(You will walk into my life)
Too late!! 
(But I'll promise you the same)
Awake!!
Take me to the end of it

Rage I feel ashamed now
'cos I can see deep in me nothing
Rage I feel ashamed now
'cos I can see deep in you nothing

Bridge:

  D#7
e|-x--------------------------------------------------------------------------------------|
B|-x--------------------------------------------------------------------------------------|
G|-8--------------------------------------------------------------------------------------|
D|-8--------------------------------------------------------------------------------------|
A|-6----11---9---------9---8---------8---9--------6----11---9---------9---8---------8---9-|
E|-6--------------------------------------------------------------------------------------|

  F#7
e|-x--------------------------------------------------------------------------------------|
B|-x--------------------------------------------------------------------------------------|
G|11--------------------------------------------------------------------------------------|
D|11--------------------------------------------------------------------------------------|
A|-9----11---9---------9---8---------8---9--------6----11---9---------9---8---------8---9-|
E|-9--------------------------------------------------------------------------------------|

It repeats like this in a short time:

"I do believe
my greed is deeper than your love"

Then you play the chorus again !

"Rage I feel ashamed now
'cos I can see deep in me nothing
Rage I feel ashamed now
'cos I can see deep in you nothing
Don't you wanna save me
Don't you wanna hate me
ooh now... nothing!
Don't you wanna hate me
Don't you wanna save me
aayyeee...your greed...

|--6--|
|--7--|
|--8--|
|--8--|
|--6--|
|--6--|
Tap to rate this tab
# A B C D E F G H I J K L M N O P Q R S T U V W X Y Z