Song name
# A B C D E F G H I J K L M N O P Q R S T U V W X Y Z

Guano Apes - I Want It tab

Band - Guano Apes		
Song - I Want It

Tuning: DADGBE

Intro:
e|-------------------------------------------|
B|-------------------------------------------|
G|-------------9-9-----9-9-9-----9-9-9-------|
D|--7/9--9--x--7-7--x--7-7-7--x--7-7-7--x----|
A|--7/9--9--x--7-7--x--7-7-7--x--7-7-7--x----|
D|--7/9--9--x--7-7--x--7-7-7--x--7-7-7--x----|

verse:
e|-------------------------------------------|
B|-------------------------------------------|
G|----------4---2--2----2-2-2-2-2-2-2-2-2-2--|
D|-------3------2--2----2-2-2-2-2-2-2-2-2-2--|
A|---/2---------0--0----0-0-0-0-0-0-0-0-0-0--|
D|-------------------------------------------|

chorus:
e|-------------------------------------------|\
B|-------------------------------------------| \
G|-------------9-9-----9-9-9-----9-9-9-------|  \
D|--7/9--9--x--7-7--x--7-7-7--x--7-7-7--x----|   \
A|--7/9--9--x--7-7--x--7-7-7--x--7-7-7--x----|    \
D|--7/9--9--x--7-7--x--7-7-7--x--7-7-7--x----|     \
				               |
e|-------------------------------------------|     /
B|-------------------------------------------|    /
G|----------4---2--2----2-2-2-2-2-2-2-2-2-2--|   /
D|-------3------2--2----2-2-2-2-2-2-2-2-2-2--|  /
A|---/2---------0--0----0-0-0-0-0-0-0-0-0-0--| /
D|-------------------------------------------|/

lead fill: (w/ wah-wah)
e|----------------|
B|---10-----------|
G|-----------/9---|
D|----------------|
A|----------------|
D|----------------|

lead fill before bridge:
e|----------------|
B|----------------|
G|--\8~~~~--------|
D|----------------|
A|----------------|
D|----------------|

bridge chords:
e|------------------------------|
B|------------------------------|
G|----9-------------------9-----|
D|----7~----2~--1~----/9--7~----|
A|----7~----2~--1~----/9--7~----|
D|----7~----2~--1~----/9--7~----|

when the palm-muting starts use these chords:
e|------------------------------|
B|------------------------------|
G|----2---------4---------------|
D|----2--2--1---4---------------|
A|----0--2--1---2---------------|
D|-------2--1-------------------|
Tap to rate this tab
# A B C D E F G H I J K L M N O P Q R S T U V W X Y Z