Guitaretab - guitar tabs
Song name
# A B C D E F G H I J K L M N O P Q R S T U V W X Y Z

Guano Apes - You Cant Stop Me tab

Tuning:
Dropped D, tune 1/2Step down
low to high:DbAbDbGbBbeb

. Palm mute
h  hammer-on
\  slide down

Intro:

eb|-----------------------------------------------|
Bb|-----------------------------------------------|
Gb|-----------------------------------------------|
Db|-----------------------------------------------|
Ab|-----------------------------------------------|
Db|-0-3-5-3-5-3-0-3-5-3-5-3-0-3-5-3-5-3-0-3-5-3-5-|


eb|----------------------------------------------------|
Bb|----------------------------------------------------|
Gb|--------------------------------------------------5-|  x2
Db|--------------------------------------------------5-|
Ab|-0-3-5-3-5-3-0-3-5-3-5-3-0-3-5-3-5-3-0-3-5-3-5-3--5-|
Db|-0-3-5-3-5-3-0-3-5-3-5-3-0-3-5-3-5-3-0-3-5-3-5-3----|

Verse:


eb|----------------------------------------------------|
Bb|----------------------------------------------------|
Gb|--------------------------------------------------5-|
Db|--------------------------------------------------5-|
Ab|-0-3-5-3-5-3-0-3-5-3-5-3-0-3-5-3-5-3-0-3-5-3-5-3--5-|
Db|-0-3-5-3-5-3-0-3-5-3-5-3-0-3-5-3-5-3-0-3-5-3-5-3----|
....................................................

Chorus:  x2
[ Tab from: http://www.guitaretab.com/g/guano-apes/52180.html ]
eb|---------------------------------------------------------------------|
Bb|-3-3-3-3-3-3-3-3-3-3-3-3-3-3-3-3-------------------------------------|
Gb|-2-2-2-2-2-2-2-2-2-2-2-2-2-2-2-2-10-10-10-10-10-10-10-10-10-10-10-10-|
Db|-0-0-0-0-0-0-0-0-0-0-0-0-0-0-0-0-10-10-10-10-10-10-10-10-10-10-10-10-|
Ab|-0-0-0-0-0-0-0-0-0-0-0-0-0-0-0-0-8--8--8--8--8--8--8--8--8--8--8--8--|
Db|-0-0-0-0-0-0-0-0-0-0-0-0-0-0-0-0-8--8--8--8--8--8--8-----------------|


eb|-------------------------------------------------------------------------|
Bb|-------------------------------------------------------------------------|
Gb|-9--9--9--9--------------------------------------10-10-10-10-10-10-10-10-|
Db|-10-10-10-10-------------------------------------10-10-10-10-10-10-10-10-|
Ab|-7--7--7--7--10h12-12-12-10h12-12-12-10h12-12-12-8--8--8--8--8--8--8--8--|
Db|-------------10h12-12-12-10h12-12-12-10h12-12-12-8--8--8--8--8--8--8--8--|


eb|-----------------------|
Bb|-----------------------|
Gb|-10-10-10-10-10-10-10\-|
Db|-10-10-10-10-10-10-10\-|
Ab|-8--8--8--8--8--8--8-\-|
Db|-----------------------|

Bridge:
Just another roadcuter...


eb|---------------------------------------------|
Bb|---------------------------------------------|
Gb|---------------------------------------------|
Db|-0-3-5-3---0-3-5-3---0-3---0-3-5-3---0-3-5-3-|x4
Ab|-0-3-5-3---0-3-5-3---0-3---0-3-5-3---0-3-5-3-|
Db|-0-3-5-3---0-3-5-3---0-3---0-3-5-3---0-3-5-3-|

Outro:
    0-3-5-3-5-3-0-3-5-3-5-3-0-3-5-3-5-3-0-3-5-3-5

eb|-----------------------------------------------|
Bb|---6-8-6-8-6---6-8-6-8-6---6-8-6-8-6---6-8-6-8-|
Gb|-7-----------7-----------7-----------7---------|
Db|-----------------------------------------------|
Ab|-----------------------------------------------|
Db|-----------------------------------------------|

i'm quite sure it's right
it might look a little bit difficult but it's very easy!
Related for You Cant Stop Me tab
Advertisement will be closed in 10 seconds