Song name
# A B C D E F G H I J K L M N O P Q R S T U V W X Y Z

Guerilla Poubelle - Cogne Sur Un Flic Pas Sur Ta Femme tab

            Cogne Sur Un Flic Pas Sur Ta Femme - Guerilla Poubelle  
         \----------------------------------------------------------/


Tabbed by:  Charlie
Email:      randomcharlie1@hotmail.com

Tuning: STANDARD

Great band, great song, album "Punk = Existentialisme", 2007. 
Enjoy.

     INTRO

e|----------------------------|
B|----------------------------|
G|---------------9-9-9--------|
D|-9-9-9--7-7-7--9-9-9--9-9-9-|
A|-9-9-9--7-7-7--7-7-7--9-9-9-|
E|-7-7-7--5-5-5---------7-7-7-|


     VERSE

e|---------------------------------------------------|
B|---------------------------------------------------|
G|---------------------------9-9--9-9-9--------------|
D|-9-9--9-9-9---7-7--7-7-7---9-9--9-9-9--9-9--9-9-9--| 
A|-9-9--9-9-9---7-7--7-7-7---7-7--7-7-7--9-9--9-9-9--|
E|-7-7--7-7-7---5-5--5-5-5---------------7-7--7-7-7--|


     CHORUS

e|-----------------------------------------------|
B|-----------------------------------------------|
G|-7-7--7-7-7--9-9--9-9-9------------------------|
D|-7-7--7-7-7--9-9--9-9-9--9-9--9-9-9-9-9-9-9-9--|
A|-5-5--5-5-5--7-7--7-7-7--9-9--9-9-9-9-9-9-9-9--|
E|-------------------------7-7--7-7-7-7-7-7-7-7--|

e|-----------------------------------------------|
B|-----------------------------------------------|
G|-7-7--7-7-7--5-5--5-5-5------------------------|
D|-7-7--7-7-7--5-5--5-5-5--9-9--9-9-9-9-9-9-9-9--|
A|-5-5--5-5-5--3-3--3-3-3--9-9--9-9-9-9-9-9-9-9--|
E|-------------------------7-7--7-7-7-7-7-7-7-7--|

     OUTRO
e|---------|
B|---------|
G|---------|
D|-9-9-9-9-|
A|-9-9-9-9-|
E|-7-7-7-7-|

SONG ORDER

Intro x4
Verse x6
Chorus x2
Verse x6
Chorus x6
Outro
Tap to rate this tab
 
# A B C D E F G H I J K L M N O P Q R S T U V W X Y Z