Song name
# A B C D E F G H I J K L M N O P Q R S T U V W X Y Z

Guerilla Poubelle - Ceci Nest Pas Du Punk tab

Help us improve GuitareTab! Take a short survey!
"Ceci n'est pas du Punk" by Guerilla Poubelle - http://www.guerilla-poubelle.com/
Split with Coquettish "Ninjas & Guerilleros" (2006)

Intro (holding the chords)
|-------------------------------------------------------------|
|-------------------------------------------------------------|
|---------------------6---------------------------------------|
|---4----4----4---7---6---------------------------------------|
|---4----4----4---7---4---------------------------------------|
|---2----2----2---5-------------------------------------------|

Bridge & Verses (repeat quickly the *chords* X time)
|-------------------------------------------------------------|
|-------------------------------------------------------------|
|-------------*6*--7-6-2------------*6*-----------------------|
|---*4*--*7*--*6*--7-6-2--*4*--*7*--*6*-----------------------|
|---*4*--*7*--*4*--5-4-0--*4*--*7*--*4*-*4*-------------------|
|---*2*--*5*--------------*2*--*5*----------------------------|    Play X time

Chorus (repeat quickly the *chords* X time)
|-------------------------------------------------------------|
|-------------------------------------------------------------|
|---*6*--*9*--------------------------------------------------|
|---*6*--*9*--*7*---------------------------------------------|
|---*4*--*7*--*7*---------------------------------------------|
|-------------*5*---------------------------------------------|    Play X time

Final (repeat quickly the *chords* X time)
|-------------------------------------------------------------|
|-------------------------------------------------------------|
|---*6*--*9*-------*7*--*7*/6---------------------------------|
|---*6*--*9*--*7*--*7*--*7*/6---------------------------------|
|---*4*--*7*--*7*--*5*--*5*/4---------------------------------|
|-------------*5*---------------------------------------------|    Play X time

   For the "Play X time" listen to the song !
                        DIY or DIE !!!  ;-)
Related for Ceci Nest Pas Du Punk tab