Guess Who - Hand Me Down World tab

E  ---------------------------------------------------9-------|
B  --12v--12-10-12-10-----------------------10-11-9h10-10p9---|
G  ------------------13v---11-9-7---7-9-11v-------------------|
D  ------------------------------9----------------------------|
A  -----------------------------------------------------------|
E  -----------------------------------------------------------|

E  ----------12-10-9---------10-----------|
B  ------------------12----12--10---------|
G  ---------------------/11---------------|
D  ---------------------------------------|
A  ---------------------------------------|
E  ---------------------------------------|

E  ------------------------------------------------------------|
B  --12v--12-10-12-10------------------------------------------|
G  ------------------13v---11-9-7---7-9-11vb-------------------|
D  ------------------------------9-----------------------------|
A  ------------------------------------------------------------|
E  ------------------------------------------------------------|
Tap to rate this tab
 
# A B C D E F G H I J K L M N O P Q R S T U V W X Y Z