Song name
# A B C D E F G H I J K L M N O P Q R S T U V W X Y Z

Guess Who - American Women tab

e|---------------------------------------------------------------------------|
B|---------------------------------------------------------------------------|
G|---------------------------------------------------------------------------|
D|-----7--9-9-9-9-9-7---9-9-9-----7--9-9-9-9-9-7-9---------------------------|
A|--9--5--7-7-7-7-7-5---7-7-7--9--5--7-7-7-7-7-5-7---------------------------|
E---7--------------------------7---------------------------------------------|
                             2x
e|----------------------------------------14-----------------------------------|
B|-----------------------13------------------------12--13----------------------|
G|----7-9-11--11-12-14--------12-10-11--------14-------------------------------|
D|-----------------------------------------------------------------------------|
A|-----------------------------------------------------------------------------|
E|-----------------------------------------------------------------------------|
                                 2x
                          keep repeating

                               solo:
e|-----------------------------------------------------------------------------|
B|----------------------------------------------11b--13-------------11b--------|
G|---9b--9--7-9-7----12b-12b--12-11-12-10-11--------------12-10-11-------------|
D|-----------------------------------------------------------------------------|
A|-----------------------------------------------------------------------------|
E|-----------------------------------------------------------------------------|

e|---------------------------------------------------------13-15-15b-15b-----|
B|---11b-11b-11b-11b-13--------------15-15-15-15-15---15---------------------|
G|-----------------------12-10-11--------------------------------------------|
D|---------------------------------------------------------------------------|
A|---------------------------------------------------------------------------|
E|---------------------------------------------------------------------------|

e|--15b--13-15-13--------------------------------------------------------------|
B|----------------15----13-15h-13p-12-10-----------------10-12-12b-10-12-10----|
G|---------------------------------------12b----12b-12b------------------------|
D|-----------------------------------------------------------------------------|
A|-----------------------------------------------------------------------------|
E|-----------------------------------------------------------------------------|

e|-----------------------------------------------------------------------------|
B|----10-15~-------------------------------------------------------------------|
G|-----------------------------------------------------------------------------|
D|-----------------------------------------------------------------------------|
A|-----------------------------------------------------------------------------|
E|-----------------------------------------------------------------------------|
Tap to rate this tab
# A B C D E F G H I J K L M N O P Q R S T U V W X Y Z