Song name
# A B C D E F G H I J K L M N O P Q R S T U V W X Y Z

Guess Who - 8 15 tab

Song: 8:15 (Bachman, Cummings) 
Band: The Guess Who 
Album: American Woman
Tabber: Nick Gray
Email:ngray8725@yahoo.ca
Tuning: Standard (EADGBE)

P-Pull Off
H-Hammer On
S-Slide

Intro Riff

|------------|
|------------|
|------------|
|-7p5s4s2-0--|
|-----------3|
|0-----------|

Verse/Chorus

|---------------|
|---------------|
|---------------|
|---------------|
|7-7-7-7-5-5-5-5|
|5-5-5-5-3-3-3-3|

Lead

|------------------------------------|
|------------------------------------|
|------------------------------------|
|7-7p5-5s4h5h4-2-2-2h4-5-5-3-32h3p2-0|
|------------------------------------|
|------------------------------------|

Interlude

|---------------------------|
|---------------------------|
|12-11-9-12-11-9-12-11-9-7-7|
|12-11-9-12-11-9-12-11-9-7-7|
|10-9--7-10-9--7-10-9--7-5-5|
|---------------------------|

You have changed my style
Knowing all the while	
I would thank you for it someday 

Progression

Intro Riff
Verse/Chorus (lead on the second time and played during the chorus)
Interlude
Intro Riff
Drum Solo 
Intro Riff
Verse/Chorus (lead on the second time and played during the chorus)
Interlude
Intro Riff
Drum Solo (fade out)
Tap to rate this tab
 
# A B C D E F G H I J K L M N O P Q R S T U V W X Y Z