Guitaretab - guitar tabs
Song name
# A B C D E F G H I J K L M N O P Q R S T U V W X Y Z

Guess Who - Hand Me Down World tab

I learned the chords that had been posted by Andrew Rogers for Hand me down world and I 
it was great, but it definitely needed the solo transcribed to complete the tab. So I 
to take a stab at it, itís all by ear and pretty close to what Randy Bachman is
playing on the recording.

Guess Who- Donít give me no hand me down world (1970)
Standard tuning, Mostly in the key of B

Key:
v = vibrato
h = hammer-on
p = pull-off
b = bend to indicated tone
r = return bend to indicated fret
> = sustain bend
/ = slide

* Use lots of distortion
[ Tab from: http://www.guitaretab.com/g/guess-who/7538.html ]
E:-------------------------------------------------------------------------|
b:----12vv----12-10-12-10----------------------------------------------12--|
g:------------------------11b(13)>---11-9-7--7-9--9b(11)r9--9-11-9/11------|
d:------------------------------------------9------------------------------|
a:-------------------------------------------------------------------------|
E:-------------------------------------------------------------------------|

E:--------------14---------------------------|
b:---b(13)r12-----17-15-----------17--15-----|
g:---------------------16v---7/16---16--16v--|
d:-------------------------------------------|
a:-------------------------------------------|
E:-------------------------------------------|

E:-------------------------------------------------------------|
b:----12vv-----12-10-12-10-------------------------------------|
g:--------------------------11b(13)>---11-9-7---7-9-9b(13)vvv--|
d:--------------------------------------------9----------------|
a:-------------------------------------------------------------|
E:-------------------------------------------------------------|

*Solo is played over this progression:

B5   B5/A  B5/G#  B5/G  F#sus4      E    B

B5   B5/A  B5/G#  B5/G  F#sus4
Related for Hand Me Down World tab