Song name
# A B C D E F G H I J K L M N O P Q R S T U V W X Y Z

Guided By Fate - Just Another Love Song tab

e--------------------------------------------------------------------|
b--------------------------------------------------------------------|
g-------------5-5-7-7-9-------------9-9-7-7-5-------------5-5-7-7-9--|
d--5-5-5-5-5--x-x-x-x-x-------------x-x-x-x-x-------------x-x-x-x-x--|
a--3-3-3-3-3--3-3-5-5-7--5-5-5-5-5--7-7-5-5-3--7-7-7-7-7--3-3-5-5-7--|
E------------------------3-3-3-3-3-------------5-5-5-5-5-------------|


e---------------------------------------------------------------------|
b---------------------------------------------------------------------|
g-------------9-9-9-9-7-5---------------------------------------------|
d-------------x-x-x-x-x-x-----2-5-2-----------------------------------|
a--3-3-3-3-3--7-7-7-7-5-3--3-3-3-3-3-----2-5-2------4-7-4------0-3-0--|
E--1-1-1-1-1--------------------------3-3-3-3-3--5-5-5-5-5--1-1-1-1-1-|


e---------------------------------------------------------------------|
b---------------------------------------------------------------------|
g---------------------------------------------------------------------|
d--5-5-5-5-5--7-7-7-----------------------5-5-5-5-5--7-7-7------------|
a--3-3-3-3-3--5-5-5----2-5-2------0-3-0---3-3-3-3-3--5-5-5-----2-5-2--|
E-------------------3-3-3-3-3--1-1-1-1-1--------------------3-3-3-3-3-|


e--------------------------------------------------------------------|
b--------------------------------------------------------------------|
g--------------------------------------------------------------------|
d--------0-----------------------------------------------------------|
a-----0-3------------------------------------------------------------|
E--1-1-1-------------------------------------------------------------|
Tap to rate this tab
 
# A B C D E F G H I J K L M N O P Q R S T U V W X Y Z