Guided By Voices - Planets Own Brand tab

-------------------------------------------------------------------------------
			     SONG NAME - Band Name
-------------------------------------------------------------------------------
Tabbed by: Autopoietic Boy
Email: Jonah.Paszek@gmail.com

The style is intentionally imperfect or "sloppy" so don't take every note
literally.  There's more focus on energy and emotion than there is on 
form.  But one thing that carries the song is the oscillating dissonance
and resonance of the open 'b' that rings throughout most of the song.   

Tuning: Standard

Song Structure:
 
Verse 4x
Chorus 1x
Verse 4x
Chorus 1x

Verses

e|---------------0-----------(0)------(0)------------------------------------|
B|---------------0---0--0-0---0--------0-------------------------------------|
G|----7----7-----4---4--4-0---4--------4-------------------------------------|
D|--5----5----5--------5--5---5--------0-------------------------------------|
A|----------------------------3--------2-------------------------------------|
E|-------------------------------------3-------------------------------------|

Chorus

e|--2----0-----------------------------------0-------------------------------|
B|--3----3----------------0-----3----0----1--0--0----------------------------|
G|--4----0----9-9-9-9-7-5-0-----2----0----2--0--0----------------------------|
D|--4----0----x-x-x-x-x-x-0-----3----2----3--2--0----------------------------|
A|--x----2--5/7-7-7-7-5-3-2-----x----3----3--3--2----------------------------|
E|--2----3----------------3-----1---------------3----------------------------|

************************************

| /   slide up
| \   slide down
| h   hammer-on
| p   pull-off
| ~   vibrato
| +   harmonic
| x   Mute note
| b   Bend
| pb  Pre-bend
| br  Bend release
| pbr Pre-bend release
| brb Bend release bend

************************************
Tap to rate this tab
 
# A B C D E F G H I J K L M N O P Q R S T U V W X Y Z