Song name
# A B C D E F G H I J K L M N O P Q R S T U V W X Y Z

Guided By Voices - Drinkers Peace tab

-------------------------------------------------------------------------------
                        DRINKER'S PEACE - Guided By Voices
-------------------------------------------------------------------------------
Tabbed by: Pat Malavi
pat.malavi@gmail.com

Tuning: Standard (album version is slightly detuned)
Capo: 3rd fret

    G               D      
e|---------------------------------------------------------------------------|
B|---------------------------------------------------------------------------|
G|------0-------0------------------------------------------------------------|
D|----------------------4-------4--------------------------------------------|
A|----5---5---5---5---5---5---5---5------------------------------------------|
E|--3-------3-------3-------3------------------------------------------------|

G          D
At times I wish I were dead
G                   D
Busy people dancing all over my head
G                 D
This I value with every move they make
G                      D
Real bad headache with every step they take

    C               D               G 
e|---------------------------------------------------------------------------|
B|---------------------------------------------------------------------------|
G|---------------------------------------------------------------------------|
D|------0-------0-------0-------0-------0-------0-----4-------4--------------|
A|----5---5---5---5---5---5---5---5---5---5---5---5-----5-------5------------|
E|--8-------8-------5-------5-------3-------3-------3-----3-3-----3----------|

C       D
I get a contact buzz
G
Can't remember what the problem was
C         D
I find it hard to even care
G
Life was too real till you got there

    G               D      
e|---------------------------------------------------------------------------|
B|---------------------------------------------------------------------------|
G|------0-------0------------------------------------------------------------|
D|----------------------4-------4--------------------------------------------|
A|----5---5---5---5---5---5---5---5------------------------------------------|
E|--3-------3-------3-------3------------------------------------------------|

G                       D
My life is dirt but you seem to make it cleaner
G                D
Reduce my felony to a misdemeanor
G                          D
When I feel sick you're an antibiotic
G                          D
Organize my world that was pointless and chaotic

    C               D               G 
e|---------------------------------------------------------------------------|
B|---------------------------------------------------------------------------|
G|---------------------------------------------------------------------------|
D|------0-------0-------0-------0-------0-------0-----4-------4--------------|
A|----5---5---5---5---5---5---5---5---5---5---5---5-----5-------5------------|
E|--8-------8-------5-------5-------3-------3-------3-----3-3-----3----------|

C       D
I get a contact buzz
G
Can't remember what the problem was
C         D
I find it hard to even care
G
Life was too real till you got there
    
e|---------------------------------------------------------------------------|
B|---------------------------------------------------------------------------|
G|------0-------0-----------------------0-------0----------------------------|
D|----------------------4-------4-----------------------4-------4------------|
A|----5---5---5---5---5---5---5---5---5---5---5---5---5---5---5---5----------|
E|--3-------3-------3-------3-------3-------3-------3-------3----------------|

e|---------------------------------------------------------------------------|
B|---------------------------------------------------------------------------|
G|------------------------------------------0--------------------------------|
D|------0-------0-------0-------0-------0---0--------------------------------|
A|----5---5---5---5---5---5---5---5---5---5-5--------------------------------|
E|--8-------8-------5-------5-------3-------3--------------------------------|
Tap to rate this tab
# A B C D E F G H I J K L M N O P Q R S T U V W X Y Z