Song name
# A B C D E F G H I J K L M N O P Q R S T U V W X Y Z

Guided By Voices - As We Go Up We Go Down tab

Artist: Guided By Voices
Title: As We Go Up, We Go Down
Album: Alien Lanes
Year: 1995
Writer: Robert Pollard


Chords:

      G    C    Em   D    Bm   Bb
e|----3----3----7----5----2----1---------|
B|----3----5----8----7----3----3---------|
G|----4----5----9----7----4----3---------|
D|----5----5----9----7----4----3---------|
A|----5----3----7----5----2----1---------|
E|----3----------------------------------|


Verse Riff:

  G          C         Em         D
e|---3-----------------------------------|
B|------3--------5-----------------------|
G|-----------------5-------9--------7----|
D|---------------------------9--------7--|
A|------------3-------3-7------7--5------|
E|-3-------3-----------------------------|


Chorus Riff:

  G         C         Bm        C
e|----3-------------------2--------------|
B|------3------5------------3------5-----|
G|---------------5-------------------5---|
D|---------------------------------------|
A|-----------3------3--2------2--3-------|
E|-3-------3-----------------------------|


=======================================================

G C Em D  x2


G        C        Em           D
I can't terrorize I see terror in your eyes

G        C          Em   D     G
As we go up, we go down

         C        Em            D
I can't socialize I'll be institutionalized

G        C          Em   D
As we go up, we go down

              G         C  Bm  C
And see the truth, yeah

           G       C  Bm  C
Is just a lie, oh

              G         C  Bm  C
And see the truth, yeah

           G       C  Bm  C
Is just a lie, oh

Bb*                    C*
I speak in monotone 'leave my fucking life alone'

G        C          Em   D
As we go up, we go down

              G        C          Em   D
              As we go up, we go down
(And see the truth yeah)

            G        C          Em   D
            As we go up, we go down
(Is just a lie)

...

=======================================================
note:
* those two chords are strummed.
=======================================================

Originally tabbed by: Michael Davidson.
Tap to rate this tab
 
# A B C D E F G H I J K L M N O P Q R S T U V W X Y Z