Song name
# A B C D E F G H I J K L M N O P Q R S T U V W X Y Z

Guided By Voices - Drinkers Peace tab

Help us improve GuitareTab! Take a short survey!
Song:                                                      Drinker's Peace
Artist:                                                    Guided By Voices
Tabbed By:                                                 Mookman74
Questions? Comments?:                                      Mookman74@aol.com


E-----------------------------------------------------------------|  Repeat
B-----------------------------------------------------------------|    As
G-----------------------------------------------------------------| Necessary
D-----12------12-----11-----11----12------12-----11-----11--------|
A---12-----12-----12-----12----12------12-----12-----12-----------|
E-9------9------9------9-----9-------9------9------9--------------|

Thats the main part and then there's a deviation from the norm below


E-----------------------------------------------------------------|
B-----------------------------------------------------------------|
G-----------------------------------------------------------------|
D-------------------------------------------------------12--------|
A-12----12-12-12-----12-12-12----12-12-12-----12-12-12------------|
E----15-----------15----------14-----------14---------------------|

The d12 is only played at the very end of the song
Related for Drinkers Peace tab