Song name
# A B C D E F G H I J K L M N O P Q R S T U V W X Y Z

Guided By Voices - My Valuable Hunting Knife tab

MY VALUABLE HUNTING KNIFE - Guided By Voices

from Alien Lanes

Tabbed by: Jennifer
standard tuning

Intro/Verse:
Lift your little finger during the first chord to get the open D string 
for one strum.

Chords Bb, G, F
e|------------------------------------|
B|------------------------------------|
G|------------------------------------|
D|---8-8-8-8-0-8--5-5-5-5--3-3-3-3----|    x2 for intro
A|---8-8-8-8-8-8--5-5-5-5--3-3-3-3----|
E|---6-6-6-6-6-6--0-0-3-3--1-1-1-1----|

I want to start a new life
With my valuable hunting knife
She will shine like a new girl
And I want to shout out our love to the world (Hit it!)

Chorus:

Chords Eb, Bb, F, G, F, G
e|-------------------------------------------|
B|-------------------------------------------|
G|--8-8-8-8-8-8-8-8--------------------------|
D|--8-8-8-8-8-8-8-8-8-8-8-8-8-8-8-8----------|
A|--6-6-6-6-6-6-6-6-6-8-8-8-8-8-8-8----------|
E|------------------6-6-6-6-6-6-6-6----------|
       Everything I think about I think about
       Everything I talk about I talk about

e|------------------------------------------------------------------------|
B|------------------------------------------------------------------------|
G|------------------------------------------------------------------------|
D|-----3-3-3-3-3-3-3-3--5-5-5-5-5-5-5-5--3-3-3-3-3-3-3-3--5-5-5-5-5-5-5-5-|
A|-----3-3-3-3-3-3-3-3--5-5-5-5-5-5-5-5--3-3-3-3-3-3-3-3--5-5-5-5-5-5-5-5-|
E|-----1-1-1-1-1-1-1-1--3-3-3-3-3-3-3-3--1-1-1-1-1-1-1-1--3-3-3-3-3-3-3-3-|
With you, but you don't know what I go through, you don't know

Intro/verse pattern x2

Days, they will turn into nights
But my valuable hunting knife
It will not rust through the tears
And it will not lose its appeal over years (Come on!)

(CHORUS)

Intro/verse pattern

I'll never know
I'll never know
And then I will run
And then I will. . .
And then I will hide
And then I will. . .
And then I will run
And then I will. . .
And then I will hide
I'll never know
I'll never know

The End
============================================================================
Tap to rate this tab
# A B C D E F G H I J K L M N O P Q R S T U V W X Y Z