Guillotine - Until It Subsides tab

www.ironfistmetalband.webs.com
This is my first tab so i hope this is good enough.

Intro Clean

Pt1
Guitar 2(+1 1st time)
|------------------------------------------------------|
|---4-----4------------------8-----6-----4-----4-------|
|--5-5---5-5----6-----6-----9-9---7-7---5-5---5-5------|
|-5---5-5---5--7-7---7-7---9---9-7---7-5---5-5---5-----|
|3-----3------7---7-7---7-7-----5-----3-----3----------|
|------------5-----5-----------------------------------|

Pt1b
Guitar 1
|------------------------------------------------------|
|------------------------------9-7---------------------|
|--------7h9----------------7h9----7/10~~~12~~~~~~\\---|
|----/9~~---9-7~~~------/9~~---------------------------|
|------------------------------------------------------|
|------------------------------------------------------|

|------------------------------------------------------|
|2h3~~-------------------------------------------------|
|-----2h3~~-------7--\4~~~~//--------------------------|
|----------2h3~~~~-------------12121213131314~~~~~\----|
|------------------------------------------------------|
|------------------------------------------------------|

Pt2
Guitar 2
|------------------------------------------------------|
|------------------------------------------------------|
|---3-----3-----3-----3-----3-----3-----3-----3--------|
|--4-4---4-4---4-4---4-4---4-4---4-4---4-4---4-4-------|
|-4---4-4---4-4---4-4---4-4---4-4---4-4---4-4---4------|
|2-----2-----2-----2-----2-----2-----2-----2-----------|

Pt2b
Guitar 1
|------------------------------------------------------|
|----------------------------12~~~/14~~----------------|
|-------------------12-13-14---------------------------|
|----------12-13-14------------------------------------|
|12-13-14----------------------------------------------|
|------------------------------------------------------|
        .         .

 /Rake            \
|----12----12----16~~~~~~~16~~1513~~~15~~1412~~~~------|
|--13----13----13--------------------------------------|
|14----14----14----------------------------------------|
|------------------------------------------------------|
|------------------------------------------------------|
|------------------------------------------------------|

|14p13p11~~~14p13p11~~~~~~-----------------------------|
|-------------------------14p13p11~~~14p13p11~~~~~~----|
|------------------------------------------------------|
|------------------------------------------------------|
|------------------------------------------------------|
|------------------------------------------------------|

|14p13p1114p13p1114p13p11------------------------------|
|------------------------14p13p1114p13p1114p13p11------|
|------------------------------------------------------|
|------------------------------------------------------|
|------------------------------------------------------|
|------------------------------------------------------|

|------------------------------------------------------|
|------------------------------------------------------|
|15p14p1215p14p1215p14p12------------------------------|
|------------------------15p14p1215p14p1215p14p12------|
|------------------------------------------------------|
|------------------------------------------------------|

|------------------------------------------------------|
|------------------------------------------------------|
|------------------------------------------------------|
|------------------------------------------------------|
|15p14p1215p14p1215p14p12------------------------------|
|------------------------15p14p1215p14p1215p14p12------|

|------------------------------------------------------|
|------------------------------------------------------|
|------------------------------------------------------|
|11br\8~~~~~8br\5~~~~~5br\~~~~~5br\2~~~~~~~~~~---------|
|------------------------------------------------------|
|------------------------------------------------------|

|------------------------------------------------------|
|------------------------------------------------------|
|------------------------------------------------------|
|2h3p2h3p2h3p25p0--------------------------------------|
|----------------3p0-----------------------------------|
|-------------------2p0--------------------------------|

This is all for now...
Tap to rate this tab
 
# A B C D E F G H I J K L M N O P Q R S T U V W X Y Z