Guillotine - Until Death tab

Until Death
This is what we have at the moment..

Pt1
|---------------------------------------------------------------|
|---------------------------------------------------------------|
|---------------------------------------------------------------|
|---------------------------------------------------------------|
|0-0-0-0-0-0-0-0-0-0-0-0-0-0h2/3--------------------------------|
|0-0-0-0-0-0-0-0-0-0-0-0-0-0h2/3--------------------------------|
 . . . . . . . . . . . . . .

Pt1b
|---------------------------------------------------------------|
|---------------------------------------------------------------|
|---------------------------------------------------------------|
|---------------------------------------------------------------|
|2-2-2-2-2-2-2-2-2-2-2-2-2-2h3p2p0------------------------------|
|2-2-2-2-2-2-2-2-2-2-2-2-2-2------------------------------------|
 . . . . . . . . . . . . .       

Pt1c
|---------------------------------------------------------------|
|---------------------------------------------------------------|
|---------------------------------------------------------------|
|---------------------------------------------------------------|
|0-0-0-0-0-0-0-0-0-0-0-0-0-0-2/3--------------------------------|
|0-0-0-0-0-0-0-0-0-0-0-0-0-0-2/3--------------------------------|
 . . . . . . . . . . . . . .

Pt1d
|---------------------------------------------------------------|
|---------------------------------------------------------------|
|---------------------------------------------------------------|
|---------------------------------------------------------------|
|2-2-2-2-2-2-2-2-2-2-2-2-2-2-3p2p0h2----------------------------|
|2-2-2-2-2-2-2-2-2-2-2-2-2-2------------------------------------|
 . . . . . . . . . . . . . .

Pt1e
|---------------------------------------------------------------|
|---------------------------------------------------------------|
|---------------------------------------------------------------|
|---------------------------------------------------------------|
|0-0-0-0-0-0-2/3-0-0-0-0-0-0-2/3--------------------------------|
|0-0-0-0-0-0-2/3-0-0-0-0-0-0-2/3--------------------------------|
 . . . . . .     . . . . . .

Pt2
|---------------------------------------------------------------|
|---------------------------------------------------------------|
|---------------------------------------------------------------|
|---------------------------------------------------------------|
|---------------------------------------------------------------|
|0-0-2/3-0-0-4/5-0-0-2/3-0-0-4/5--------------------------------|
 . .     . .     . .     . .

Pt2b
|---------------------------------------------------------------|
|---------------------------------------------------------------|
|---------------------------------------------------------------|
|----4/5-----6/7-----4/5-----6/7--------------------------------|
|---------------------------------------------------------------|
|0-0-----0-0-----0-0-----0-0------------------------------------|
 . .     . .     . .     . .

Pt3
|---------------------------------------------------------------|
|---------------------------------------------------------------|
|---------------------------------------------------------------|
|---------------------------------------------------------------|
|2/3-0-0-8\7-0-0-2/3-0-0-8\7-10\7-------------------------------|
|2/3-0-0-8\7-0-0-2/3-0-0-8\7-10\7-------------------------------|
     . .     . .     . .

Pt3b
|---------------------------------------------------------------|
|---------------------------------------------------------------|
|---------------------------------------------------------------|
|4/5-----10\9-----4/5-----10\9-12\9-----------------------------|
|---------------------------------------------------------------|
|----0-0------0-0-----0-0---------------------------------------|
     . .      . .     . .


More soon...
Tap to rate this tab
 
# A B C D E F G H I J K L M N O P Q R S T U V W X Y Z