Song name
# A B C D E F G H I J K L M N O P Q R S T U V W X Y Z

Guitar Vader - Super Brothers tab

-------------------------------------------------------------------------------
			     Super Brothers - Guitar Vader
-------------------------------------------------------------------------------

By: zero
Standard tunning(EADGBe)
Standard tunning(Bass) (EADG)

Guitar:intro
e|---------------------------------------------------------------------------|
B|---------------------------------------------------------------------------|
G|-7-7-7-7-7-7-7-7--5-5-5-5-5-5-5-5--7-7-7-7-7-7-7-7--5-5-5-5-5-5-5-5--------|
D|-7-7-7-7-7-7-7-7--5-5-5-5-5-5-5-5--7-7-7-7-7-7-7-7--5-5-5-5-5-5-5-5--------|
A|-5-5-5-5-5-5-5-5--3-3-3-3-3-3-3-3--5-5-5-5-5-5-5-5--3-3-3-3-3-3-3-3--------|
E|---------------------------------------------------------------------------|

Bass:post intro slide
G|---------------------------------------------------------------------------|
D|---------------------------------------------------------------------------|
A|---------------------------------------------------------------------------|
E|-0--/5---------------------------------------------------------------------|

Guitar:verse(play with heavy distortion)
e|---------------------------------------------------------------------------|
B|---------------------------------------------------------------------------|
G|----------5-5-----------5-5-----------5-5-----------5-5--------------------|
D|-7-7-7-7--5-5--7-7-7-7--5-5--7-7-7-7--5-5--7-7-7-7--5-5--------------------|
A|-7-7-7-7--3-3--7-7-7-7--3-3--7-7-7-7--3-3--7-7-7-7--3-3--------------------|
E|-5-5-5-5-------5-5-5-5-------5-5-5-5-------5-5-5-5-------------------------|

bass: verse
G|---------------------------------------------------------------------------|
D|---------------------------------------------------------------------------|
A|-0-0-0-0--3-3--5--0-0-0-0--3-3--5--0-0-0-0--3-3--5-------------------------|
E|---------------------------------------------------------------------------|

Guitar chorus:who are you, whats your name...
e|---------------------------------------------------------------------------|
B|---------------------------------------------------------------------------|
G|---------------------------------------------------------------------------|
D|-7-7--7-7--7-7--7-7--7-7--7-7----------------------------------------------|
A|-7-7--7-7--7-7--7-7--7-7--7-7----------------------------------------------|
E|-5-5--5-5--5-5--5-5--5-5--5-5----------------------------------------------|

bass:chorus
G|---------------------------------------------------------------------------|
D|---------------------------------------------------------------------------|
A|-0-0--0-0--0-0--0-0--0-0--0-0----------------------------------------------|
E|-------------------------------0--/5---------------------------------------|

Guitar:bridge(play with increasing rythem)
e|---------------------------------------------------------------------------|
B|---------------------------------------------------------------------------|
G|---------------------------------------------------------------------------|
D|-7-7-7-7--5-5-5-5--7-7-7-7--5-5-5-5--7-7-7-7--5-5-5-5----------------------|
A|-7-7-7-7--5-5-5-5--7-7-7-7--5-5-5-5--7-7-7-7--5-5-5-5----------------------|
E|-5-5-5-5--3-3-3-3--5-5-5-5--3-3-3-3--5-5-5-5--3-3-3-3----------------------|

Bass:Bridge
G|---------------------------------------------------------------------------|
D|---------------------------------------------------------------------------|
A|---------------------------------------------------------------------------|
E|-5-5-5-5--3-3-3-3--5-5-5-5--3-3-3-3--5-5-5-5--3-3-3-3----------------------|
Tap to rate this tab
# A B C D E F G H I J K L M N O P Q R S T U V W X Y Z