Song name
# A B C D E F G H I J K L M N O P Q R S T U V W X Y Z

Guitar Vader - Magical Girl tab

-------------------------------------------------------------------------------
			     Guitar Vader - Magical Girl
-------------------------------------------------------------------------------

By: flipstylee (flipstylee6@hotmail.com) and stylee311 (Sephiroth@phoenixinquis.net)

Main Riff, played with mild Distortion
e|---------------------------|
B|---------------------------|
G|5-5/7-7-x-8-7-5-5----5-5-5-|
D|5-5/7-7-x-8-7-5-5----5-5-5-|
A|3-3/5-5-x-6-5-3-3----3-3-3-|
E|---------------------------|

"Synth Riff", palm muted, strummed down and then up, fast
e|---------------------------|
B|---------------------------|
G|---------------------------|
D|---------------------------|
A|---------------------------|
E|5-5-4-4-3-3-2-2-1-1--------|

--Play Main Riff (x6)
--Play Main Riff (x3) over:
Sheeeeeeeeeeeeeeeeee's a magical girl
Sheeeeeeeeeeeeeeeeee's a magical girl
Sheeeeeeeeeeeeeeeeee's a magical girl
--Play "Synth Riff" (x4)
--Play Main Riff (x2)
--Play Main Riff (x6) over:
Sheeeeeeeeeeeeeeeeee's a magical girl
Sheeeeeeeeeeeeeeeeee's a magical girl
Sheeeeeeeeeeeeeeeeee's a magical girl
Sheeeeeeeeeeeeeeeeee's a magical girl
Sheeeeeeeeeeeeeeeeee's a magical girl
Sheeeeeeeeeeeeeeeeee's a magical girl
--Play "Synth Riff" (x4)
--Play Main Riff (x5)
--Play Main Riff (x4) over:
Sheeeeeeeeeeeeeeeeee's a magical girl
Sheeeeeeeeeeeeeeeeee's a magical girl
Sheeeeeeeeeeeeeeeeee's a magical girl
Sheeeeeeeeeeeeeeeeee's a magical girl
--Play "Synth Riff" (x4)
--Play Main Riff (x2)
--Play Main Riff (x7) over:
Sheeeeeeeeeeeeeeeeee's a magical girl
Sheeeeeeeeeeeeeeeeee's a magical girl
Sheeeeeeeeeeeeeeeeee's a magical girl
Sheeeeeeeeeeeeeeeeee's a magical girl
Sheeeeeeeeeeeeeeeeee's a magical girl
Sheeeeeeeeeeeeeeeeee's a magical girl
Sheeeeeeeeeeeeeeeeee's a magical girl
--Play "Synth Riff" (x4)
[While fading out,]
--Play Main Riff (x5)
--Play Main Riff (x4) over:
Sheeeeeeeeeeeeeeeeee's a magical girl
Sheeeeeeeeeeeeeeeeee's a magical girl
Sheeeeeeeeeeeeeeeeee's a magical girl
Sheeeeeeeeeeeeeeeeee's a magical girl
Tap to rate this tab
 
# A B C D E F G H I J K L M N O P Q R S T U V W X Y Z