Song name
# A B C D E F G H I J K L M N O P Q R S T U V W X Y Z

Guitar Wolf - Murder By Rock tab

There is no greater example of the intensity of Guitar Wolf harnessed through rock, than
song. This tab is based on the version of the song from Golden Black, but I think the
is the same on the RockNRoll Etiquette album, just mess around with the distortion. I 
included the bass part during the break in between verses for the sake of something to
during the pause.

Standard Tuning
E-A-D-G-B-E

Chords Used ~ All Chords are Barred
A (Root on 6th)
G (Root on 6th)
D (Root on 5th)


Opens with Toru on drums...


A    G
A    G
A    G
A    G

A      G
Rock N Roll!!


A      G
Rock N Roll!!

A      G
Rock N Roll!!

A      G
Rock N Roll!!

A      G     D
             Murder By Rock!!!

Break
G|--------------------------------------|
D|--------------------------------------| (x4)
A|---------5----------------------------|
E|---55--3------------------------------|


A    G
A    G

A      G
Rock N Roll!!


A      G
Rock N Roll!!

A      G
Rock N Roll!!

A      G
Rock N Roll!!

A      G     D
             Murder By Rock!!!


Break
G|--------------------------------------|
D|--------------------------------------| (x4)
A|---------5----------------------------|
E|---55--3------------------------------|

A  A  A  A
A  A  A  A

e|----------------------------------14-14-14-14-14-14-14-14-14-14-14-14-|
B|-5b5b5b5b5b5b5b5b5b5b5b5b-5-------------------------------------------|
G|----------------------------7-5---------------------------------------|
D|----------------------------------------------------------------------|
A|----------------------------------------------------------------------|
E|----------------------------------------------------------------------|

[Really extend that 14th fret salvo]

You kind of have to sneak back into the G Chord
A      G     D
             Murder By Rock!!!

Break
G|--------------------------------------|
D|--------------------------------------| (x4)
A|---------5----------------------------|
E|---55--3------------------------------|


A    G
A    G
A    G
A    G

A      G
Rock N Roll!! (What What!?)


A      G
Rock N Roll!! (What What!?)

A      G
Rock N Roll!! (What What!?)

A      G
Rock N Roll!! (What What!?)

A      G
Rock N Roll!! (What What!?)


A      G
Rock N Roll!! (What What!?)

A      G
Rock N Roll!! (What What!?)

A      G
Rock N Roll!! (What What!?)

A      G     D                   A
             Murder By Rock!!!


Thats all...
Remember to kick up the distortion...

R.I.P. Basswolf
Tap to rate this tab
# A B C D E F G H I J K L M N O P Q R S T U V W X Y Z