Guitaretab - guitar tabs
Song name
# A B C D E F G H I J K L M N O P Q R S T U V W X Y Z

Guitar Wolf - Ufo Romantics tab

The song is UFO Romantics and it is from the album of the same name. I don't have the 
to use as a guidepost for rythym, so it is really important you listen to the music to 
getting confused...

Standrad Tuning, as usual.

Chords (All Barred)
A- (Root on 6th)
B- (Root on 6th)
C- (Root on 6th)
D- (Root on 5th)
G- (Root on 6th)

Opening Bass Line (Repeat x2 alone)
G|------------------------------------------------------------------------|
D|------------------------------------------------------------------------|
A|--0--3-4-5-5-5-5-5-5-5-5------------------------------------------------|
E|------------------------------------------------------------------------|

Guitar comes in when bass is playing D note.

D (x6) Each time let it ring out each measure...

[For reference, this is Lick 1]
e|-12--11--10--9-8--12--11/0----------------------------------------------|
B|---12--11--10-9-8--12--11/0---------------------------------------------|
G|------------------------------------------------------------------------|
D|------------------------------------------------------------------------|
A|------------------------------------------------------------------------|
E|------------------------------------------------------------------------|

D (x2) Again, let it ring out each measure...

1, 2, 3, 4!!!

D D D A G - A
D D D A G - A
D D D A G - A
D D D A G - A

Verse:
D   G

D   G

D   G

D    G  A  G A

(Alright!)

D D D A G - A
D D D A G - A

Verse

Verse, except this time instead of going to A on the 3rd line, play:

D

D  A B
D  A B
G  G A
[ Tab from: http://www.guitaretab.com/g/guitar-wolf/79453.html ]
Bridge
e|---------------------------------------------------------------|
B|---------------------------------------------------------------|  (x2)
G|---------------------------------------------------------------|
D|--9/11------9/11-----12-12-12-12-12-11-9-7---------------------|
A|--7/9--12---7/9------10-10-10-10-10--9-7-5---------------------|
E|-------10------------------------------------------------------|

C  A
C  A
C  A

Then it goes back to the intro...
Guitarwolf pretty much plays the bass part on guitar during this phase..
Also Lick 1 is played, except 6 frets higher.. (so for all the numbers on that tab, add 
to all of them)..

1, 2, 3, 4!

D D D A G - A
D D D A G - A

Play Verse (x2)


D D D A G - A
D D D A G - A

Play Verse

Then this solo
(If you have a rotary effect, now would be the time to use it)
e|----------------10--10-10-13---13--------------------------------|
B|--7b---5-5------10--10-10-13-----13------------------------------|
G|----------7b-----------------------------------------------------|
D|-----------------------------------------------------------------|
A|-----------------------------------------------------------------|
E|-----------------------------------------------------------------|

(With the distortion up, it is important to treat each note on the solo as a half-note, 
it longer)

The solo segways straight into:

D   A G
Hey UFO!!!

D   A G
Hey UFO!!!

D   A G
Hey UFO!!!

D   A G A

D (Let Ring)

And end with this...

e|----------------------------------------------------------------|
B|----------------------------------------------------------------|
G|-----9-11-------------------------------------------------------|
D|--7-------12----------------------------------------------------|
A|----------------------------------------------------------------|
E|----------------------------------------------------------------|
Related for Ufo Romantics tab
Ufo Romantics chords by Guitar Wolf