Song name
# A B C D E F G H I J K L M N O P Q R S T U V W X Y Z

Guitbox - Rockflower tab

Help us improve GuitareTab! Take a short survey!
Awesome song: Rockflower by Guitbox, LISTEN TO GUITBOX THEY ARE EXTREMELY TALENTED!

Verse- Heavily distorted

E----------------------------|
B----------------------------|
G----------------------------|
D----------------------------|
A----------------------------|
E-----2-2-2-0?2-2-2-0--------|


Chorus: Free your?

A5;G5;F5;A5 repeat

A5

E-------------------|
B-------------------|
G-------------------|
D------7------------|
A------7------------|
E------5------------|

G5

E----------------|
B----------------|
G----------------|
D-------5--------|
A-------5--------|
E-------3--------|

F5

E--------------|
B--------------|
G--------------|
D--------3-----|
A--------3-----|
E--------1-----|
Related for Rockflower tab