Guitaretab - guitar tabs
Song name
# A B C D E F G H I J K L M N O P Q R S T U V W X Y Z
Home / G / Gun / Word Up tab

Gun - Word Up tab

This is my first tab and i think i sounds pretty good except a few things. i might have 
a few background riffs but not to much i believe :)

()= silent note
p = pull-off
h = hammer-on
/ = slide
b = bend
~ = vibrato
* = harmonic
x = mute
q = squeel
intro  00:00
let ring out
    ~~~~~~~~~~~~~~~~
e|-*7----------------|
b|-------------------|
g|-------------------|
d|-------------------|
a|-------------------|
e|-------------------|
  00:06
e|-----------------------------------------------------|
b|-----------------------------------------------------|
g|-11--xx11--x--x9-9---9----9--7--xx7-9--xx9-1111xx11--|
d|-11--xx11--x--x9-9---9----9--7--xx7-9--xx9-1111xx11--|
a|-9---xx9---x--x7-7---7----7--5--xx5-7--xx7-9-9-xx9---|
e|-----------------------------------------------------|

 Guitarr I
e|-----------------------------------------------------|
b|-----------------------------------------------------|
g|-11--xx11--x--x9-9---9----9--7--xx7-9--xx9-1111xx11--|
d|-11--xx11--x--x9-9---9----9--7--xx7-9--xx9-1111xx11--|
a|-9---xx9---x--x7-7---7----7--5--xx5-7--xx7-9-9-xx9---|
e|-----------------------------------------------------|
                //
           00:14
 Guitarr II      \\
e|-----77777-6---55555-4-------2--xx2-4--xx4-6-6-xx6---|
b|-----77777-7---55555-5-------3--xx3-5--xx5-7-7-xx7---|
g|-----66666-6---44444-4-------2--xx2-4--xx4-6-6-xx6---|
d|-----------------------------------------------------|
a|-----------------------------------------------------|
e|-----------------------------------------------------|


Guitarr I
e|-----------------------------------------------------|
b|-----------------------------------------------------|
g|-11--xx11--x--x9-9---9----9--7--xx7-9--xx9-1111xx11--|
d|-11--xx11--x--x9-9---9----9--7--xx7-9--xx9-1111xx11--|
a|-9---xx9---x--x7-7---7----7--5--xx5-7--xx7-9-9-xx9---|
e|-----------------------------------------------------|

Guitarr II
e|-----77777-6---55555-4---------------------6-6-6-6---|
b|-----77777-7---55555-5---------------------7-7-5-7---|
g|-----66666-6---44444-4---------------------6-6-6-6---|
d|-----------------------------------------------------|
a|-----------------------------------------------------|
e|-----------------------------------------------------|


Verse   00:30
e|-----------------------------------------------------|
b|-----------------------------------------------------|
g|-11----11/-----9-9---9/------7----7-9----9-1111--11/-| Play 4 times
d|-11----11/-----9-9---9/------7----7-9----9-1111--11/-|
a|-9-----9/------7-7---7/------5----5-7----7-9-9---9/--|
e|-----------------------------------------------------|


Chorus   01:02

   Guitarr I
e|-----------------------------------------------------|
b|-----------------------------------------------------|
g|-11--xx11--x--x9-9---9----9--7--xx7-9--xx9-1111xx11--|
d|-11--xx11--x--x9-9---9----9--7--xx7-9--xx9-1111xx11--|
a|-9---xx9---x--x7-7---7----7--5--xx5-7--xx7-9-9-xx9---|
e|-----------------------------------------------------|-----\
                                                 play 2 times \
   Guitarr II                                                  /
e|-----77777-6---55555-4-------------------------------|-----/
b|-----77777-7---55555-5-------------------------------|
g|-----66666-6---44444-4-------------------------~~~~~~|
d|----------------------------/7---6-4--4-/7---6-4--4--|
a|-----------------------------------------------------|
e|-----------------------------------------------------|


Verse        01:19
  Guitarr I
e|-----------------------------------------------------|
b|-----------------------------------------------------|
g|-11--xx11--x--x9-9---9----9--7--xx7-9--xx9-1111xx11--| Play 4 times
d|-11--xx11--x--x9-9---9----9--7--xx7-9--xx9-1111xx11--|
a|-9---xx9---x--x7-7---7----7--5--xx5-7--xx7-9-9-xx9---|
e|-----------------------------------------------------|
[ Tab from: http://www.guitaretab.com/g/gun/132689.html ]
  Guitarr II riff 1     play this riff one time, then play riff 2 once, then
e|-----------------------------------------------------|  play riff 1
b|-----------------------------------------------------|  two more times
g|-~~~~~~-------~~~~~~-------~~~~~~-------~~~~~~-------|
d|/4--------/7--4--------/7--4--------/7--4--------/7--|
a|------(7)-----------7------------7------------7------|
e|-----------------------------------------------------|
  Guitarr II  riff 2
e|-----------------------------------------------------|
b|-----------------------------------------------------|
g|-~~~~~~-------~~~~~~-------~~~~~~-------~~~~~~b97-7--|
d|/4--------/7--4--------/7--4--------/7--4--------9-87|
a|-------7------------7------------7------------7------|
e|-----------------------------------------------------|

Chorus  01:52

Guitarr I
e|-----------------------------------------------------|
b|-----------------------------------------------------|
g|-11--xx11--x--x9-9---9----9--7--xx7-9--xx9-1111xx11--|
d|-11--xx11--x--x9-9---9----9--7--xx7-9--xx9-1111xx11--|
a|-9---xx9---x--x7-7---7----7--5--xx5-7--xx7-9-9-xx9---|
e|-----------------------------------------------------|

Guitarr II
e|-----77777-6---55555-4-------------------------------|
b|-----77777-7---55555-5-------------------------------|
g|-----66666-6---44444-4-------------------------------|
d|----------------------------/7---6-4--4-/7---6-4--4--|
a|-----------------------------------------------------|
e|-----------------------------------------------------|


Bridge 02:00
e|-----------------------------------------------------------------|
b|-----------------------------------------------------------------|
g|---6-6---6-6---6---6-6---6-6---6---6-6---6-6---6---6-6---6-6---6-|
d|-4-----4-----4-------------------0-----0-----0-------------------|
a|-----------------7-----7-----7-------------------7-----7-----7---|
e|-----------------------------------------------------------------|

Im sorry to say that i cant catch the solo...but during the solo you just  play this 4 times
e|-----------------------------------------------------|
b|-----------------------------------------------------|
g|-11--xx11--x--x9-9---9----9--7--xx7-9--xx9-1111xx11--|
d|-11--xx11--x--x9-9---9----9--7--xx7-9--xx9-1111xx11--|
a|-9---xx9---x--x7-7---7----7--5--xx5-7--xx7-9-9-xx9---|
e|-----------------------------------------------------|

wierd part                         |
Guitarr I   play 4 times           |
e|---------------------------------|
b|---------------------------------|
g|-4-4-x-4-x-4-5-x-4-4-x-4-x-x-4-x-|
d|-4-4-x-4-x-4-5-x-4-4-x-4-x-x-4-x-|
a|-2-2-x-2-x-2-3-x-2-2-x-2-x-x-2-x-|
e|---------------------------------|
                                   |
Guitarr II           play 2 times  |             play 1 time
e|---------------------------------|---------------------------------|
b|---------------------------------|---------------------------------|
g|---------------------------------|---------------------------------|
d|---------------------------------|---------------------------------|
a|-2-----------3---2---------------|-7-----------8---7-----------5---|
e|---------------------------------|---------------------------------|
             play 1 time
e|---------------------------------|
b|---------------------------------|
g|---------------------------------|
d|---------------------------------|
a|-12----------13--17--------------|
e|---------------------------------|

Verse 03:05
Guitarr I
e|-----------------------------------------------------|
b|-----------------------------------------------------|
g|-11--xx11--x--x9-9---9----9--7--xx7-9--xx9-1111xx11--|
d|-11--xx11--x--x9-9---9----9--7--xx7-9--xx9-1111xx11--|
a|-9---xx9---x--x7-7---7----7--5--xx5-7--xx7-9-9-xx9---|
e|-----------------------------------------------------|
                     //
               Play 4 times
Guitarr II           \\
e|--------------------------|--------------------------|
b|--------------------------|--------------------------|
g|--------------------------|--------------------------|
d|----/7---6-4--4-/7---6-4--|----/7---6-4--4-/7---6-4--|
a|--------------------------|--------------------------|
e|--------------------------|--------------------------|


Chorus 03:38

Guitarr I
e|-----------------------------------------------------|
b|-----------------------------------------------------|
g|-11--xx11--x--x9-9---9----9--7--xx7-9--xx9-1111xx11--|
d|-11--xx11--x--x9-9---9----9--7--xx7-9--xx9-1111xx11--|
a|-9---xx9---x--x7-7---7----7--5--xx5-7--xx7-9-9-xx9---|
e|-----------------------------------------------------|

                    Play 4 times
Guitarr II
e|-----77777-6---55555-4-------------------------------|
b|-----77777-7---55555-5-------------------------------|
g|-----66666-6---44444-4-------------------------------|
d|----------------------------/7---6-4--4-/7---6-4--4--|
a|-----------------------------------------------------|
e|-----------------------------------------------------|


well...thats it :P
Related for Word Up tab
Advertisement will be closed in 10 seconds