Song name
# A B C D E F G H I J K L M N O P Q R S T U V W X Y Z

Gunfire 76 - Something For The Suffering tab

-------------------------------------------------------------------------------
			     Something For The Suffering - Gunfire 76
-------------------------------------------------------------------------------
Tabbed by: Jonny Ford
Youtube: www.youtube.com/jonnyrufc
twitter:http://twitter.com/J0NNYF0RD

Tuning:Tune Down a Half-Step, Eb AB Db Gb Bb Eb


Intro:


e|------------0-|-------------------------------x4|
B|----------3-0-|b15-b15-b15-b15-b15-br15---------|
G|----------2---|--------------------------12~~---|
D|-5-4-2-2--0---|-----------------------------14~~|
A|-5-4-2-2------|---------------------------------|
E|-3-2-0-0------|---------------------------------|
       x x

Verse:

e|--------0-------------------x4|-------0-|----------------------------------x2|
B|------3-0---------------------|-----3-0-|-b15-b15-b15-b15-b15-br15-----------|
G|------2-----------------------|-----2---|---------------------------12~~-----|
D|-2-2--0---------2-5-2---------|-2-2-0---|-------------------------------14~~-|
A|-2-2------0-2-3---------------|-2-2-----|------------------------------------|
E|-0-0------------------3~-2~---|-0-0-----|------------------------------------|
   x x                            x x


Verse:


e|--------0-------------------x4|
B|------3-0---------------------|
G|------2-----------------------|
D|-2-2--0---------2-5-2---------|
A|-2-2------0-2-3---------------|
E|-0-0------------------3~-2~---|
   x x

Chorus:


e|-----------------------------------------------------------------------------------------------|
B|-----------------------------------------------------------------------------------------------|
G|14-12-14-17-14-17-19-17-16-17-14-b2-0-h2-p0--14-14-12-14-17-14-17-19-19-17-16-17-14-b2-0-h2 p0-|
D|-------------------------------------------2--------------------------------------------------2|
A|-----------------------------------------------------------------------------------------------|
E|-----------------------------------------------------------------------------------------------|

Pre-Verse:


e|-------0------------------------------------x4|
B|-----3-0--b15-b15-b15-b15-b15-br15------------|
G|-----2-----------------------------12~~-------|
D|-2-2-0----------------------------------14~---|
A|-2-2------------------------------------------|
E|-0-0------------------------------------------|
   x x

Verse:


e|--------0-------------------x4|
B|------3-0---------------------|
G|------2-----------------------|
D|-2-2--0---------2-5-2---------|
A|-2-2------0-2-3---------------|
E|-0-0------------------3~-2~---|
   x x

Bridge:


e|----------------------x4|-----------------------------------------------------|
B|------------------------|-----------------------------------------------------|
G|-2----2-----------------|--2----2---------------------------------------------|
D|-2----2-----5-5---2-2---|--2----2--5555555522222222---------------------------|
A|-0----0-----5-5---2-2---|--0----0--5555555522222222---------------------------|
E|------------3-3---0-0---|----------3333333300000000---------------------------|
                                     xxxxx


Solo: * This part is far from perfect but I have looked at some of thier live performances of this
        song and he just seems to improvise so make of it what you can :)


e|-------------------------------------------------------------|
B|-------------------------------------------------------------|
G|-----2-2-h3-p2---b7-b7-b7-br7--------------------------------|
D|-2-5----------5----------------5------b7-b7-b7-b7-5-h7-p5----|
A|---------------------------------7------------------------7--|
E|-------------------------------------------------------------|

e|------------------------------------------------------------------------------------|
B|-b15-b15-b15------------------------------------------------------------------------|
G|--------------------------------9~~---9-h11-p9-9-h12-p9--b14-br14-12-h14-p12--------|
D|--------------9-h11-p9-9-h12-p9----------------------------------------------14~~---|
A|------------------------------------------------------------------------------------|
E|------------------------------------------------------------------------------------|

e|---------------------------------------------12-h14-p12-12-h15-p12-12-h14-p12-12-h15-p12-------|
B|-12-h14-p12-12-h15-p12-12-h14-p12-12-h15-p12-----------------------------------------------b15~|
G|-----------------------------------------------------------------------------------------------|
D|-----------------------------------------------------------------------------------------------|
A|-----------------------------------------------------------------------------------------------|
E|-----------------------------------------------------------------------------------------------|


Builds back up into Chorus:

e|---------------------------|
B|-b15-b15-b15-br15----------|
G|------------------12~~-----|
D|---------------------14~~--|
A|---------------------------|
E|---------------------------|

Chorus:

e|-----------------------------------------------------------------------------------------------|
B|-----------------------------------------------------------------------------------------------|
G|14-12-14-17-14-17-19-17-16-17-14-b2-0-h2-p0--14-14-12-14-17-14-17-19-19-17-16-17-14-b2-0-h2 p0-|
D|-------------------------------------------2--------------------------------------------------2|
A|-----------------------------------------------------------------------------------------------|
E|-----------------------------------------------------------------------------------------------|


e|-----------------------------------------------------------------------------------------------|
B|-----------------------------------------------------------------------------------------------|
G|14-12-14-17-14-17-19-17-16-17-14-b2-0-h2-p0--14-14-12-14-17-14-17-19-19-17-16-17-14-b2-0-h2 p0-|
D|-------------------------------------------2--------------------------------------------------2|
A|-----------------------------------------------------------------------------------------------|
E|-----------------------------------------------------------------------------------------------|


Outro:


e|-------0-|-----------------------------------x4|
B|-----3-0-|-b15-b15-b15-b15-b15-br15------------|
G|-----2---|--------------------------12~~-------|
D|-2-2-0---|-------------------------------14~---|
A|-2-2-----|-------------------------------------|
E|-0-0-----|-------------------------------------|
   x x




************************************

| /   slide up
| \   slide down
| h   hammer-on
| p   pull-off
| ~   vibrato
| +   harmonic
| x   Mute note
| b   Bend
| pb  Pre-bend
| br  Bend release
| pbr Pre-bend release
| brb Bend release bend

************************************
Tap to rate this tab
 
# A B C D E F G H I J K L M N O P Q R S T U V W X Y Z