Song name
# A B C D E F G H I J K L M N O P Q R S T U V W X Y Z

Gungor - Beautiful Things tab

Gungor - Beautiful Things
Tabbed By: Tim Holley

So this is my first tab ever..and it was done by watching there video on how
to play it, as well as picking out some from a performance of it on Youtube..It is not 
and I do leave some of the more fancy stuff out..but it works, If anyone knows the parts 
missed feel free to let me know.

Intro:
   D    F#    D    C#    F#    C#    B    D    F#    D
E----------------------------------------------------2--------|
B--7----11----7----6-----11----6-----4----7-----11---3--------|
G--7----11----7----6-----11----6-----4----7-----11---2--------|
D--7----11----7----6-----11----6-----4----7-----11------------|
A--5----9-----5----4-----9-----4-----2----5-----9-------------|
E-------------------------------------------------------------|

Verse 1
    G       A/G        D           G       A/G        D
E------------------------------------------------------------------|
B------------------------------------------------------------------|
G---4---4---6---6------------------4---4---6---6-------------------|
D-----0---0---0---0---2\4-2-4-2-0----0---0---0---0---2\4-2-4-2-0---|
A--------------------0------------------------------0--------------|
E---5---------------0--------------5---------------0---------------|

    G       A/G     Bm7      A    G       A/G       D
E------------------------------------------------------------------|
B------------------------------2--4---4---6---6--------------------|
G---4---4---6---6---4---4-----2-----0---0---0---0------------------|
D-----0---0---0---0---4---4--2----------------------2\4------------|
A---------------------------0----------------------0---------------|
E---5---------------2-------------5---------------0----------------|
(Repeat)

Chorus

E-------------------------------------------------------------------|
B---3---3---3---3---3---3---3----3---3---3---3---3---3---3---3---3--|
G---2---2---2---2---2---2---2--2-2-2-2---2---2---2---2---2---2---2--|
D---4---4---4---4---4---4---4----4---4---4---4---4---4---4---4---4--|
A-------------------------------------------------------------------|
E-------------------------------------------------------------------|

Verse 2
G   A/G  D
All around
(E   F# E      D) G       A/G      D
Life is springing up from this old ground
(E  F# E   D) G      A/G   Bm7   A      G A/G D
Out of chaos life is being found in You

Chorus 2 ( He plays this one a little different then the first time)

E---------------------------------------------------------------------|
B---3---3---3---3---3---7---7--6-7-6-7---7---7---3---3---2---2---2--3-|
G---2---2---2---2---2---7---7--6-7-6-7---7---7---2---2---3---3---3--3-|
D---4---4---4---4---4---7---7--6-7-6-7---7---7---4---4---2---2---2----|
A-----------------------5---5--4-5-4-5---5---5------------------------|
E---------------------------------------------------------------------|

G
You make beautiful things
                A/G                  D
You make beautiful things out of the dust
                   D/C#?
You make beautiful things
                G                D
You make beautiful things out of us

Instrumental: Same as Intro

   D    F#    D    C#    F#    C#    B    D    F#    D
E----------------------------------------------------2--------|
B--7----11----7----6-----11----6-----4----7-----11---3--------|
G--7----11----7----6-----11----6-----4----7-----11---2--------|
D--7----11----7----6-----11----6-----4----7-----11------------|
A--5----9-----5----4-----9-----4-----2----5-----9-------------|
E-------------------------------------------------------------|

Bridge
D           F#m          G         D
You make me new, You are making me new (Repeat)

Overlap Chorus with same strumming to Bridge once

Finish off with Chorus

G
You make beautiful things
                A/G                  D
You make beautiful things out of the dust
                   D/C#?
You make beautiful things
                G                D
You make beautiful things out of us

Thanks :) If anything is in correct, please feel free to let me know, I am
in no way saying this is perfect, and I know for a fact that I leave some of
the little things that he does out..only because I can not tell what it is.
Tap to rate this tab
# A B C D E F G H I J K L M N O P Q R S T U V W X Y Z