Song name
# A B C D E F G H I J K L M N O P Q R S T U V W X Y Z

Gungor - Brother Moon chords

Highlighted       Show chord diagrams
Song: Brother Moon
Artist: Gungor
Album: Ghosts Upon The Earth
Tabs By: Connor McDaniel

Order: Verse: 1
       Chorus
       Verse: 2
       Chorus
       Bridge x9*
Key of C

Chords:
     C           F           Am             G
E----0-----------1------------0-------------3------------------------|
B----1-----------1------------1-------------3------------------------|
G----0-----------2------------2-------------0------------------------|
D----2-----------3------------2-------------0------------------------|
A----3-----------3------------0-------------2------------------------|
E----------------1--------------------------3------------------------|


[Intro:]
{Transposed from flute and violin (It might be a viola though)}*
E-15-12-15-12-15-12-15-12-15-12-15-12-15-12-15-12--------------------|
B--------------------------------------------------------------------|
G--------------------------------------------------------------------|
D--------------------------------------------------------------------|
A--------------------------------------------------------------------|
E--------------------------------------------------------------------|

E-15-12-13----12-----------------------------------------------------|
B----------15----13-15-13-10-12-8-10-6-8-10--------------------------|
G--------------------------------------------------------------------|
D--------------------------------------------------------------------|
A--------------------------------------------------------------------|
E--------------------------------------------------------------------|

E-15-12-13----12-----------------------------------------------------|
B----------15----13-15-13-10-12-8-10-6-8-10--------------------------|
G--------------------------------------------------------------------|
D--------------------------------------------------------------------|
A--------------------------------------------------------------------|
E--------------------------------------------------------------------|

[Verse: 1&2](Guitar) Repeat through verses*
E--------------------------------------------------------------------|
B---------------------------------------------6----------------------|
G-5-5-5-5-5-5-5-5-5-5-5-5-5-5-5-5-5-5-5-5-5-5---5-5-5-5-5------------|
D--------------------------------------------------------------------|
A--------------------------------------------------------------------|
E--------------------------------------------------------------------|

[Verse: 1]
 C
Brother moon shine down your light on us tonight
                     F
Show us the love of God
C
Sister Sun you bring out the day you're shining the light 
                     F
Of God on your face today 

[Chorus]
G            F
Maker of it all
G               F
You provide it all
C
In You we live
C
In You we move
C                    F
In You we have our being
C
You're glorious
C                     F
You're holding us together all together

Verse: 2 (Piano)
E--------------------------------------------------------------------|
B--------1--------1--------1--------1--------1--------1--------1-----|
G------0--------0--------0--------0--------0--------0--------2-------|
D----2--------2--------2--------2--------2--------2--------3---------|
A--3--------3--------3--------3--------3--------3--------3-----------|
E--------------------------------------------------------------------|

E--------------------------------------------------------------------|
B--------1-------1-------1-------------------------------------------|
G------2-------2-------2---------------------------------------------|
D----3-------3-------3-----------------------------------------------|
A--3-------3-------3-------------------------------------------------|
E--------------------------------------------------------------------|


[Verses: 2] 
C
Brother Wind your clouds and your storms
                                                     F
you’re breathing the breath of God in your lungs for us
 C
Mother Earth, you're giving us life with God's open hand you
                   F
Always provide for us 

[Chorus] 

Bridge :(piano) Repeat through bridge*
E--------13-12---------------13-12----15-13-12-----------------------|
B--13-15-------15-13---13-15-------15------------------13-13-13-13---|
G----------------------------------------------------at end of song*-|
D--------------------------------------------------------------------|
A--------------------------------------------------------------------|
E--------------------------------------------------------------------|

[Bridge]
C                         C                    G
You are everything good, you are everything beautiful
C                    C
you are everything, you're every


God Bless. :)
Tap to rate this tab
# A B C D E F G H I J K L M N O P Q R S T U V W X Y Z