Song name
# A B C D E F G H I J K L M N O P Q R S T U V W X Y Z

Gungor - Vous Etes Mon Coeur You Are My Heart tab

Song:  Vous κtes mon cœur (You Are My Heart)
Artist: Gungor
Album: Ghost Upon The Earth (Deluxe Version)
Tabbed: Connor McDaniel

I’m 90% sure this is right Correct the things that sound wrong to you.

Key of C
Chords:   
    F      C      G       Am      Dm     Em    Em7
E---1------0------3-------0-------1------0-----3---------------|
B---1------1------3-------1-------3------0-----3---------------|
G---2------0------0-------2-------2------0-----0---------------|
D---3------2------0-------2-------0------2-----2---------------|
A---3------3------2-------0-------0------2-----2---------------|
E---1------0------3-------0-------0------0-----0---------------|

[Verses:1]

Guitar:1                                               
E-------------------------------------------------------------|
B-------------------------------------------------------------|
G--0--0--0--0--0—-0--0--0--0--0--2--2--2--2--2--2--2--2--2--2-|
D--2--2--2--2--2--2--2--2--2--2--3--3--3--3--3--3--3--3--3--3-|
A-3--3--3--3--3--3--3--3--3--3--3--3—-3--3--3--3--3--3--3--3--|
E-------------------------------------------------------------|

E--------------------------------------------------------------|
B--------------------------------------------------------------|
G--0--0--0--0--0--0--0--0--0--0--------------------------------|
D—-2-—2-—2-—2-—2-—2-—2--2--2--2--------------------------------|
A-3--3--3--3--3--3--3--3--3--3---------------------------------|
E--------------------------------------------------------------|

Guitar: 2 
Riff: 2/Main Riff
E--------------------------------------------------------------|
B-9---7---10-----10--9--4--5-----10--9--4--5--9----------------|
G-9---6---9------9---9--4--4-----9---9--4--4--9----------------|
D--------------------------------------------------------------|
A--------------------------------------------------------------|
E--------------------------------------------------------------|

Riff: 2 (Repeat through verse: 2)
E--------------------------------------------------------------|
B-1--0--------1--0--------1--0-------1--0-------1--0-----------|
G-------2-----------2-----------2----------2-----------2-------|
D----------2-----------2-----------2----------2-----------2----|
A--------------------------------------------------------------|
E--------------------------------------------------------------|

[Chorus: 1 and 2]

Guitar: 1 (Repeat this as needed)
E-------------------------------------------------------------|
B-------------------------------------------------------------|
G--2--2--2--2--2—-2--2--2--2--2--0--0--0--0--0--0--0--0--0--0-|
D--2--2--2--2--2--2--2--2--2--2--3--3--3--3--3--3--3--3--3--3-|
A-3--3--3--3--3--3--3--3--3--3--3--3—-3--3--3--3--3--3--3--3--|
E-------------------------------------------------------------|

E-------------------------------------------------------------|
B-------------------------------------------------------------|
G--2--2--2--2--2—-2--2--2--2--2--0--0--0--0--0--0--0--0--0--0-|
D--2--2--2--2--2--2--2--2--2--2--0--0--0--0--0--0--0--0--0--0-|
A-3--3--3--3--3--3--3--3--3--3--2--2—-2--2--2--2--2--2--2--2--|
E-------------------------------------------------------------|

E-------------------------------------------------------------|
B-------------------------------------------------------------|
G--2--2--2--2--2—-2--2--2--2--2--0--0--0--0--0--0--0--0--0--0-|
D--2--2--2--2--2--2--2--2--2--2--3--3--3--3--3--3--3--3--3--3-|
A-3--3--3--3--3--3--3--3--3--3--3--3—-3--3--3--3--3--3--3--3--|
E-------------------------------------------------------------|

Guitar: 2
Chorus Riff (Repeat through chorus)
E-------------------------------------------------------------|
B-------------------------------------------------------------|
G-------------------------------------------------------------|
D------------------------------9--7--6------------------------|
A--4--6--7--11--9--7--4--6--7---------------------------------|
E-------------------------------------------------------------|

Solo: (Play notes a lot and very fast)
E---------------------------------------------------------|
B---------------------------------------------------------|
G---------------------------------------------------------|
D-7-7-7-7-7-7-7-7-7-7-7-7-7-7-7-7-7-7-7-7-7-7-7-7-7-9-9-9-|
A---------------------------------------------------------|
E---------------------------------------------------------|

E-----------------------------------------------------------|
B-----------------------------------------------------------|
G-----------------------------------------------------------|
D-9-9-9-9-9-9-9-9-9-9-9-9-9-9-9-9-9-9-9-9-10-10-10-10-10-10-|
A-----------------------------------------------------------|
E-----------------------------------------------------------|

E----------------------------------------------------------|
B----------------------------------------------------------|
G----------------------------------------------------------|
D-10-10-10-10-10-10-10-10-10-10-10-14-14-14-14-14-14-14-14-|
A----------------------------------------------------------|
E----------------------------------------------------------|

E----------------------------------------------------------|
B----------------------------------------------------------|
G----------------------------------------------------------|
D-14-14-14-14-14-14-14-14-12-12-12-12-12-12-12-12-12-12-12-|
A----------------------------------------------------------|
E----------------------------------------------------------|

E----------------------------------------------------------|
B----------------------------------------------------------|
G----------------------------------------------------------|
D-12-12-12-12-12-12-10-10-10-10-10-10-10-10-10-10-10-10-10-|
A----------------------------------------------------------|
E----------------------------------------------------------|

E---------------------------------------------------------|
B---------------------------------------------------------|
G---------------------------------------------------------|
D-10-10-10-10-7-7-7-7-7-7-7-7-7-7-7-7-7-7-7-7-7-7-7-7-7-7-|
A---------------------------------------------------------|
E---------------------------------------------------------|

E---------------------------------------------------------|
B---------------------------------------------------------|
G---------------------------------------------------------|
D-9-9-9-9-9-9-9-9-9-9-9-9-9-9-9-9-9-9-9-9-9-9-10-10-10-10-|
A---------------------------------------------------------|
E---------------------------------------------------------|

E----------------------------------------------------------|
B----------------------------------------------------------|
G----------------------------------------------------------|
D-10-10-10-10-10-10-10-10-10-10-10-10-10-14-14-14-14-14-14-|
A----------------------------------------------------------|
E----------------------------------------------------------|

E----------------------------------------------------------|
B----------------------------------------------------------|
G----------------------------------------------------------|
D-14-14-14-14-14-14-14-14-14-14-17-17-17-17-17-17-17-17-17-|
A----------------------------------------------------------|
E----------------------------------------------------------|

E----------------------------------------------------------|
B----------------------------------------------------------|
G----------------------------------------------------------|
D-17-17-17-17-17-17-17-15-15-15-15-15-15-15-15-15-15-15-15-|
A----------------------------------------------------------|
E----------------------------------------------------------|

E----------------------------------------------------------|
B----------------------------------------------------------|
G----------------------------------------------------------|
D-15-15-15-15-14-14-14-14-14-14-14-14-14-14-14-14-14-14-14-|
A----------------------------------------------------------|
E----------------------------------------------------------|

E----------------------------------------------------------|
B----------------------------------------------------------|
G----------------------------------------------------------|
D-14-14-14-14-14-14-14-14-14-14-14-14-12-12-12-12-12-12-12-|
A----------------------------------------------------------|
E----------------------------------------------------------|

E----------------------------------------------------------|
B----------------------------------------------------------|
G----------------------------------------------------------|
D-12-12-12-12-12-12-12-12-12-15-15-15-15-15-15-15-15-15-15-|
A----------------------------------------------------------|
E----------------------------------------------------------|

E----------------------------------------------------------|
B----------------------------------------------------------|
G----------------------------------------------------------|
D-14-14-14-14-14-12-12-12-12-12-12-12-12-12-12-12-12-12-12-|
A----------------------------------------------------------|
E----------------------------------------------------------|
Tap to rate this tab
# A B C D E F G H I J K L M N O P Q R S T U V W X Y Z