Song name
# A B C D E F G H I J K L M N O P Q R S T U V W X Y Z

Gungor - When Death Dies tab

Song: When Death Dies
Artist: Gungor
Album: Ghosts Upon The Earth (Deluxe Version)
tabbed: Connor McDaniel
Key: C

This one should be right i used a bit of the mac capo for the finger picking he
does in the solo. This is the version from the music video look it top on youtube
if you haven't seen it. This a revived Tab of the one I lasted posted. Please
Comment and rate I am open to constructive criticism. Thanks heres the tab.

Chords:
     C     Cm    Am    Am/F#    Am/G      Em     Em/F#   Em/G
E----0-----0-----0-------2-------3--------0-------2--------3--------|
B----1-----3-----1-------1-------1--------0-------0--------0--------|
G----0-----0-----2-------2-------2--------0-------0--------0--------|
D----2-----5-----2-------2-------2--------2-------2--------2--------|
A----3-----3-----0-------0-------0--------2-------2--------2--------|
E----0----------------------------0--------0-------0--------0-------|

intro:

  Em  Em/F#   Em/G  Em  Em/F# Em/G  Cm
E-0------2---3------0-----2---3-----0-----0-----0-------0--------|
B----0-----0---0------0-----0---0-----4-----4------4------4------|
G------0---------0------0---------0-----0-----0------0------0----|
D-2------2---2------2-----2---2-----5-----------5----------------|
A----------------------------------------------------------------|
E----------------------------------------------------------------|

Verse 1:

  Em  Em/F#  Em/G  Em  Em/F# Em/G  Cm
E-0------2---3------0-----2-----2---3-----0-----0-----0-------0--------|
B----0-----0---0------0-----0-----0---0-----4-----4------4------4------|
G------0---------0------0-----0---------0-----0-----0------0------0----|
D-2------2---2------2-----2-----2---2-----5-----------5----------------|
A----------------------------------------------------------------------|
E----------------------------------------------------------------------|

 Am  Am/F# Am/G  Am Am/F#  Am/G  Em  Em/F#  Em/G
E-0-----2---3-----0-----2---3-----0-----2---3-------------------------|
B---1-----1---1-----1-----1---1-----0-----0---0-----------------------|
G-----2---------2-----2---------2-----0---------0---------------------|
D-2-----2---------2-----2---------2-----2-----------------------------|
A---------------------------------------------------------------------|
E---------------------------------------------------------------------|
  Em  Em/F#  Em/G  Em  Em/F# Em/G  Cm
E-0------2---3------0-----2-----2---3-----0-----0-----0-------0--------|
B----0-----0---0------0-----0-----0---0-----4-----4------4------4------|
G------0---------0------0-----0---------0-----0-----0------0------0----|
D-2------2---2------2-----2-----2---2-----5-----------5----------------|
A----------------------------------------------------------------------|
E----------------------------------------------------------------------|
 Am  Am/F# Am/G  Am Am/F#  Am/G  Em  Em/F#  Em/G
E-0-----2---3-----0-----2---3-----0-----2---3-------------------------|
B---1-----1---1-----1-----1---1-----0-----0---0-----------------------|
G-----2---------2-----2---------2-----0---------0---------------------|
D-2-----2---------2-----2---------2-----2-----------------------------|
A---------------------------------------------------------------------|
E---------------------------------------------------------------------|

Chorus 1:

   C                      Em                       Am
E-0-----0-----0-----0-----0-----0-----0-----0------0--------|
B---1-----1-----1-----1-----0-----0-----0-----0------1------|
G-----0-----0-----0-----0-----0-----0-----0-----0------2----|
D-2--------2-----------2--------------2------------2--------|
A-----------------------------------------------------------|
E-----------------------------------------------------------|

  Am                Em
E-0-----0-----0-----0-----0-----0--------|
B---1-----1-----1-----0-----0-----0------|
G-----2-----2-----2-----0-----0-----0----|
D-------------2-----2-----------2--------|
A----------------------------------------|
E----------------------------------------|

  C                       Em                       Am
E-0-----0-----0-----0-----0-----0-----0-----0------0--------|
B---1-----1-----1-----1-----0-----0-----0-----0------1------|
G-----0-----0-----0-----0-----0-----0-----0-----0------2----|
D-2-----------2-----------2-----------2------------2--------|
A-----------------------------------------------------------|
E-----------------------------------------------------------|
  Am                Em
E-0-----0-----0-----0-----0-----0--------|
B---1-----1-----1-----0-----0-----0------|
G-----2-----2-----2-----0-----0-----0----|
D-------------2-----2-----------2--------|
A----------------------------------------|
E----------------------------------------|

Verse 2: (Michael just claps a lot and stuff but the chords are the same as the first)
         (i mute the chords during this verse)

 Em     Em/F#     Em/G     Em     Em/F#    Em/G    Cm
 Am     Am/F#     Am/G     Am     Am/F#    Am/G     Em    Em/F#    Em/G
 Em     Em/F#     Em/G     Em     Em/F#    Em/G    Cm
 Am     Am/F#     Am/G     Am     Am/F#    Am/G     Em    Em/F#    Em/G

Chorus 2:

C   Em   Am   Em
C   Em   Am   Em

Lyrics: (If you can't pick here is the chord version I made)

Intro: Em   Em/F#   Em/G   C

Verse 1:
Em  Em/F#  Em/G       C       Am   Am/F#   Am/G       Em   Em/F#  Em/G
Like              the waters flooding         the desert
Em  Em/F#  Em/G       C       Am   Am/F#   Am/G       Em   Em/F#  Em/G
Like              the sunrise showing         all things

Chorus 1:
C                      Em
Where it comes flowers grow
                         Am
Lions sleep, gravestones roll
                            Em
Where death dies all things live
C                        Em
Where it comes poor men feast
                         Am
Kings fall down to their knees
                            Em
When death dies all things live
             C     Em      Am      Em
All things live

Verse 2:
Em  Em/F#  Em/G  C       Am   Am/F#   Am/G       Em      Em/F#  Em/G
Like           a woman searching            and finding love
Em  Em/F#  Em/G  C      Am   Am/F#   Am/G    Em       Em/F#  Em/G
Like          an ocean buried            and bursting forth


Chorus 2:
C                       Em
Where it comes flowers grow
                         Am
Lions sleep, gravestones roll
                            Em
Where death dies all things come alive
C                       Em
Where it comes water’s clean

Children fed
       Am
All believe
                            Em
When death dies all things live
            C      Em      Am      Em
All things live

Instrumentals:(basically its the C scale and the same chord progression all the way through)

 C     Em      Am     Em *Reapte this as needed*

Outro: (One strum per chord)
C                       Em
Where it comes flowers grow
                          Am
Lions sleep, gravestones roll
                             Em
Where death dies all things live

God Bless :D
Tap to rate this tab
# A B C D E F G H I J K L M N O P Q R S T U V W X Y Z