Song name
# A B C D E F G H I J K L M N O P Q R S T U V W X Y Z

Gungor - When Death Dies Acoustic tab

I tabbed the version played in this video: http://www.youtube.com/watch?v=9vHFsXOdTt0

    Em                            Eharmonicminor7add2
e|--0----2----3----0----2----3----0----0----0----0----0----0------|
B|----0----0----0----0----0----0----4----4----4----4----4----4----|
G|-----0----0----0----0----0----0----0----0----0----0----0----0---|
D|--2----2----2----2----2----2----4----4----4----4----4----4------|
A|----------------------------------------------------------------|
E|----------------------------------------------------------------|

Verse 1: "Like the waters..." - The chord progression here is Em EmHarm7add2 Am Em

e|--0----2----3----0----2----3----0----0----0----0----0----0------|
B|----0----0----0----0----0----0----4----4----4----4----4----4----|
G|-----0----0----0----0----0----0----0----0----0----0----0----0---|
D|--2----2----2----2----2----2----4----4----4----4----4----4------|
A|----------------------------------------------------------------|
E|----------------------------------------------------------------|

e|--0----0----0----2----2----2----0----0----0----2----3----3------|
B|----1----1----1----1----1----0----0----0----0----0----0----0----|
G|-----2----2----2----2----2----0----0----0----0----0----0----0---|
D|--2----2----2----2----2----2----2----2----2----2----2----2------|
A|----------------------------------------------------------------|
E|----------------------------------------------------------------|

Verse 2: "Like the sunrise..." Same chord progression as Verse 1. Asterisks 
indicates notes that changed from V1.

e|--0----2----3----0----2----3----0----0----0----0----0----0------|
B|----0-----0----0----0----0----0----4----4----4----4----4----4---|
G|-----0-----0----0----0----0----0----0----0----0----0----0----0--|
D|--2----2----2----2----2----2----4----4----4----4----4----4------|
A|----------------------------------------------------------------|
E|----------------------------------------------------------------|
                                                 *    *    *
e|--0----0----0----2----2----2----0----0----0----0----0----2------|
B|----1----1----1----1----1----0----0----0----0----0----0----0----|
G|-----2----2----2----2----2----0----0----0----0----0----0----0---|
D|--2----2----2----2----2----2----2----2----2----2----2----2------|
A|----------------------------------------------------------------|
E|----------------------------------------------------------------|

Chorus: "Where it comes..." This is also where the cello comes in... The chord 
progression is C Em C G Bm

e|--0----0----0----0----0----0----0----0----0----0----0----0------|
B|----1----1----1----1----1----1----0----0----0----0----0----0----|
G|-----0----0----0----0----0----0----0----0----0----0----0----0---|
D|----------------------------------------------------------------|
A|--3--------------3--------------2--------------2----------------|
E|----------------------------------------------------------------|

e|--0----0----0----0----0----0----3----3----3----2----2----2-------0----|
B|----1----1----1----1----1----1----0----0----0----3----3----3-----0----|
G|-----0----0----0----0----0----0----0----0----0----4----4----4----0----|
D|-----------------------------------------------4----4----4-------2----|
A|--3--------------3-----------------------------------------------2----|
E|--------------------------------3--------------------------------0----|

Verse 3: "Like a woman..." Clapping part...

Verse 4: "Like an ocean..." Guitar comes back in strumming instead of fingerpicking.

Em      B7/E    Am          Em
Like an ocean buried and bursting forth.

Chorus:

C                        Em                            C
Where it comes, flowers grow, lions sleep, gravestones roll

                            G            Bm
When death dies, all things come alive

C                      Em                        C
When it comes, water's clean, children fed, all believe

                            G    Bm
When death dies, all things live... all things live

Instrumental: The chord progression is C B Am G

    C                          B(B7)
e|--12p8--8---------------0----11p7--7-----------------------|\
B|------8--8----------1--1---------7--7--------------10------| \
G|-------9--9--------2--2-----------8--8---------8--8--------|  \
D|-----------10-----0--0----------------9-------9--9---------|   \
A|-----------------3-------------------------6/9--9----------|    \
E|-----------------------------------------------------------|     \

                                                                   2x
    Am                         G                       C
e|--8p5--5---------------0----10p7--7------------------12----|     /
B|-----5--5-------------1---------8--8--------------3--13----|    /
G|------5--5---------2-2-----------7--7---------0--0---12----|   /
D|----------7-------2------------------9-------0--0----14----|  /
A|---------------0h3--3-----------------------2--2-----15----| /
E|-------------------------------------------3---------------|/

The next section is fast alternate picking (marked by asterisks).

e|-------------------------------------|
B|--12*--10*--8*--7*--5*--4*-5-7*--5*--|
G|-------------------------------------|
D|-------------------------------------|
A|-------------------------------------|
E|-------------------------------------|

                                                   (palm slap)
e|------------0-2-2-2----0------------------------------x--|
B|------0-1-3--------------3-1~---0---0---0---0---0-----x--|
G|--0-2-----------------------------2---0---------------x--|
D|------------------------------------------4---2---1~--x--|
A|------------------------------------------------------x--|
E|------------------------------------------------------x--|

e|-------------------------------------------------------------------------------------x-|
B|-------------------------------------------------------------------------------------x-|
G|-------------------------------------------------------------------------------------x-|
D|--------0-2-4--2-4-5~-------0-2-4--2-4-5--4-5-4~-2-4-2~-1-2-1----1---1---1---1--1----x-|
A|--0-2-3---------------0-2-3------------------------------------3---3---2---0---------x-|
E|-------------------------------------------------------------------------------3--2x-x-|
                                                  
                                                        B (strum)
e|-----------------------------------------------------7--|
B|--x-x-x----------------------------------------------7--|
G|--x-x-x---------------------------------------7-7-7--8--|
D|--2-2-2----------------------------5p0*-7p0*--9-9-9--9--|
A|--3-3-3-0*-2p0*--3p0*--5p0*-7p0-5p0------------------9--|
E|--5-5-5----------------------------------------------7--|

C    B7/E    Am    G    Bm

Chorus: "Where it comes..."

    C        Em      C        Em
e|--0--------0----------------0----|
B|--1----------------1---------0---|
G|--0------------------------------|
D|--2---------------------------2--|
A|--3------------------------------|
E|-----------0-------0-------------|
Tap to rate this tab
# A B C D E F G H I J K L M N O P Q R S T U V W X Y Z