Song name
# A B C D E F G H I J K L M N O P Q R S T U V W X Y Z

Gungor - Brighter Day tab

-------------------------------------------------------------------------------
                         Brighter Day Intro - Gungor
-------------------------------------------------------------------------------
Tabbed by: JD Foote
E-mail:  jfoote3@gmail.com

Tuning: standard

e|------------------------------------------------------------------|
B|----------------------------------------------------------6-6-6---|
G|--6-6-6---6-6-6---4-4-4---7-7-7---6-6-6---9-9-9---9-9-9---7-7-7---|
D|--7-7-7---7-7-7---7-7-7---6-6-6---6-6-6---7-7-7---9-9-9---7-7-7---|  x2
A|--7-7-7---5-5-5---5-5-5---5-5-5---8-8-8---9-9-9---7-7-7---5-5-5---|
E|--5-5-5-----------------------------------------------------------|
Tap to rate this tab
# A B C D E F G H I J K L M N O P Q R S T U V W X Y Z