Song name
# A B C D E F G H I J K L M N O P Q R S T U V W X Y Z

Gungor - Beautiful Things tab

-----------------------------------------------------------------------------
                        BEAUTIFUL THINGS - GUNGOR
-----------------------------------------------------------------------------

Tuning:Standard

e|-----2-----------2--------------------------------------------------------|
B|-3--------3--2-------3---2--0---4--3--------------------------------------|
G|--------------------------------------------------------------------------|
D|--------------------------------------------------------------------------|
A|--------------------------------------------------------------------------|
E|--------------------------------------------------------------------------|
   you make me new you are making me new

e|-----2-----------2--------------3--2--------------------------------------|
B|-3--------3--2-------3---2--0---------------------------------------------|
G|--------------------------------------------------------------------------|
D|--------------------------------------------------------------------------|
A|--------------------------------------------------------------------------|
E|--------------------------------------------------------------------------|
   you make me new you are making me new
Tap to rate this tab
# A B C D E F G H I J K L M N O P Q R S T U V W X Y Z