Song name
# A B C D E F G H I J K L M N O P Q R S T U V W X Y Z

Gungor - You Have Me tab

Intro:

|----------------------------------------------------------|
|---3-----4-----3-----4---------1-----3-----1-----3--------|
|-----3-----3-----3-----3---------3-----3-----3-----3------|
|-------5-----5-----5-----5---0-----0-----0-----0-----0----|
|-6--------------------------------------------------------|
|----------------------------------------------------------|

|------------------------------------------------------------|
|---3-----4-----3-----4---------1-----3-----1-----3h1--------|
|-----3-----3-----3-----3---------3-----3-----3-------3------|
|-------5-----5-----5-----5---3-----3-----3-----3-------3----|
|-6----------------------------------------------------------|
|------------------------------------------------------------|


verse one:

   out on the farthest edge          there in the silence
|----------------------------------------------------------|
|---3-----4-----3-----4---------1-----3-----1-----3--------|
|-----3-----3-----3-----3---------3-----3-----3-----3------|
|-------5-----5-----5-----5---0-----0-----0-----0-----0----|
|-6--------------------------------------------------------|
|----------------------------------------------------------|
                                you were there
|------------------------------------------------------------|
|---3-----4-----3-----4---------1-----3-----1-----3h1--------|
|-----3-----3-----3-----3---------3-----3-----3-------3------|
|-------5-----5-----5-----5---3-----3-----3-----3-------3----|
|-6----------------------------------------------------------|
|------------------------------------------------------------|


   my faith was torn to shreds      my heart in the balance
|----------------------------------------------------------|
|---3-----4-----3-----4---------1-----3-----1-----3--------|
|-----3-----3-----3-----3---------3-----3-----3-----3------|
|-------5-----5-----5-----5---0-----0-----0-----0-----0----|
|-6--------------------------------------------------------|
|----------------------------------------------------------|
                           and you were there
|------------------------------------------------------------|
|---3-----4-----3-----4---------1-----3-----1-----3h1--------|
|-----3-----3-----3-----3---------3-----3-----3-------3------|
|-------5-----5-----5-----5---3-----3-----3-----3-------3----|
|-6----------------------------------------------------------|
|------------------------------------------------------------|


Chorus 1:

       always                         faithful
|----------------------------------------------------------|
|---3-----4-----3-----4---------1-----3-----1-----3--------|
|-----3-----3-----3-----3---------3-----3-----3-----3------|
|-------5-----5-----5-----5---0-----0-----0-----0-----0----|
|-6--------------------------------------------------------|
|----------------------------------------------------------|

          always                        good
|------------------------------------------------------------|
|---3-----4-----3-----4---------1-----3-----1-----3h1--------|
|-----3-----3-----3-----3---------3-----3-----3-------3------|
|-------5-----5-----5-----5---3-----3-----3-----3-------3----|
|-6----------------------------------------------------------|
|------------------------------------------------------------|

              you still                      have me
|----------------------------------------------------------|
|---3-----4-----3-----4---------1-----3-----1-----3--------|
|-----3-----3-----3-----3---------3-----3-----3-----3------|
|-------5-----5-----5-----5---0-----0-----0-----0-----0----|
|-6--------------------------------------------------------|
|----------------------------------------------------------|
           you still                    have my heart
|------------------------------------------------------------|
|---3-----4-----3-----4---------1-----3-----1-----3h1--------|
|-----3-----3-----3-----3---------3-----3-----3-------3------|
|-------5-----5-----5-----5---3-----3-----3-----3-------3----|
|-6----------------------------------------------------------|
|------------------------------------------------------------|




|----------------------------------------------------------|
|---3-----4-----3-----4---------1-----3-----1-----3--------|
|-----3-----3-----3-----3---------3-----3-----3-----3------|
|-------5-----5-----5-----5---0-----0-----0-----0-----0----|
|-6--------------------------------------------------------|
|----------------------------------------------------------|

|------------------------------------------------------------|
|---3-----4-----3-----4---------1-----3-----1-----3h1--------|
|-----3-----3-----3-----3---------3-----3-----3-------3------|
|-------5-----5-----5-----5---3-----3-----3-----3-------3----|
|-6----------------------------------------------------------|
|------------------------------------------------------------|


verse 2:

   i thought i had seen the end                everything broken
|----------------------------------------------------------|
|---3-----4-----3-----4---------1-----3-----1-----3--------|
|-----3-----3-----3-----3---------3-----3-----3-----3------|
|-------5-----5-----5-----5---0-----0-----0-----0-----0----|
|-6--------------------------------------------------------|
|----------------------------------------------------------|
                but you were there
|------------------------------------------------------------|
|---3-----4-----3-----4---------1-----3-----1-----3h1--------|
|-----3-----3-----3-----3---------3-----3-----3-------3------|
|-------5-----5-----5-----5---3-----3-----3-----3-------3----|
|-6----------------------------------------------------------|
|------------------------------------------------------------|

 i've wandered at heaven's gates         i made my bet in hell
|----------------------------------------------------------|
|---3-----4-----3-----4---------1-----3-----1-----3--------|
|-----3-----3-----3-----3---------3-----3-----3-----3------|
|-------5-----5-----5-----5---0-----0-----0-----0-----0----|
|-6--------------------------------------------------------|
|----------------------------------------------------------|
                     but you were there... still
|------------------------------------------------------------|
|---3-----4-----3-----4---------1-----3-----1-----3h1--------|
|-----3-----3-----3-----3---------3-----3-----3-------3------|
|-------5-----5-----5-----5---3-----3-----3-----3-------3----|
|-6----------------------------------------------------------|
|------------------------------------------------------------|


Chorus 1:

       always                         faithful
|----------------------------------------------------------|
|---3-----4-----3-----4---------1-----3-----1-----3--------|
|-----3-----3-----3-----3---------3-----3-----3-----3------|
|-------5-----5-----5-----5---0-----0-----0-----0-----0----|
|-6--------------------------------------------------------|
|----------------------------------------------------------|

          always                       good
|------------------------------------------------------------|
|---3-----4-----3-----4---------1-----3-----1-----3h1--------|
|-----3-----3-----3-----3---------3-----3-----3-------3------|
|-------5-----5-----5-----5---3-----3-----3-----3-------3----|
|-6----------------------------------------------------------|
|------------------------------------------------------------|

              you still                    have me
|----------------------------------------------------------|
|---3-----4-----3-----4---------1-----3-----1-----3--------|
|-----3-----3-----3-----3---------3-----3-----3-----3------|
|-------5-----5-----5-----5---0-----0-----0-----0-----0----|
|-6--------------------------------------------------------|
|----------------------------------------------------------|
           you still                   have my heart
|------------------------------------------------------------|
|---3-----4-----3-----4---------1-----3-----1-----3h1--------|
|-----3-----3-----3-----3---------3-----3-----3-------3------|
|-------5-----5-----5-----5---3-----3-----3-----3-------3----|
|-6----------------------------------------------------------|
|------------------------------------------------------------|




|---------6-----------6-----------|
|---6-----------6-----------6-----|
|-----7-----7-----7-----7-----7---|
|-------8-----8-----8-----8-----8-|
|---------------------------------|
|-6-------------------------------|

|---------6----------6-----------|
|---4-----------4----------4-----|
|-----5-----5-----5----5-----5---|
|-------6-----6-----6----6-----6-|
|--------------------------------|
|-4------------------------------|

|---------3-----------3-----------|
|---3-----------3-----------3-----|
|-----3-----3-----3-----3-----3---|
|-------4-----4-----4-----4-----4-|
|---------------------------------|
|-3-------------------------------|

|--------2-----------2--------------|
|--2-----------2-----------2--------|
|----3-----3-----3-----3-----3------|
|------4-----4-----4-----4-----4----|
|-----------------------------------|
|-2---------------------------------|


Chorus 2:

         you have me
|---------6-----------6-----------|
|---6-----------6-----------6-----|
|-----7-----7-----7-----7-----7---|
|-------8-----8-----8-----8-----8-|
|---------------------------------|
|-6-------------------------------|
        you have me
|---------6----------6-----------|
|---4-----------4----------4-----|
|-----5-----5-----5----5-----5---|
|-------6-----6-----6----6-----6-|
|--------------------------------|
|-4------------------------------|
           you have my
|---------3-----------3-----------|
|---3-----------3-----------3-----|
|-----3-----3-----3-----3-----3---|
|-------4-----4-----4-----4-----4-|
|---------------------------------|
|-3-------------------------------|
           heart completely
|--------2-----------2--------------|
|--2-----------2-----------2--------|
|----3-----3-----3-----3-----3------|
|------4-----4-----4-----4-----4----|
|-----------------------------------|
|-2---------------------------------|


Chorus 2:

 you have me
|---------6-----------6-----------|
|---6-----------6-----------6-----|
|-----7-----7-----7-----7-----7---|
|-------8-----8-----8-----8-----8-|
|---------------------------------|
|-6-------------------------------|
        you have me
|---------6----------6-----------|
|---4-----------4----------4-----|
|-----5-----5-----5----5-----5---|
|-------6-----6-----6----6-----6-|
|--------------------------------|
|-4------------------------------|
           you have my
|---------3-----------3-----------|
|---3-----------3-----------3-----|
|-----3-----3-----3-----3-----3---|
|-------4-----4-----4-----4-----4-|
|---------------------------------|
|-3-------------------------------|
           heart completely
|--------2-----------2--------------|
|--2-----------2-----------2--------|
|----3-----3-----3-----3-----3------|
|------4-----4-----4-----4-----4----|
|-----------------------------------|
|-2---------------------------------|


Chorus 2:

         you have me
|---------6-----------6-----------|
|---6-----------6-----------6-----|
|-----7-----7-----7-----7-----7---|
|-------8-----8-----8-----8-----8-|
|---------------------------------|
|-6-------------------------------|
        you have me
|---------6----------6-----------|
|---4-----------4----------4-----|
|-----5-----5-----5----5-----5---|
|-------6-----6-----6----6-----6-|
|--------------------------------|
|-4------------------------------|
           you have my
|---------3-----------3-----------|
|---3-----------3-----------3-----|
|-----3-----3-----3-----3-----3---|
|-------4-----4-----4-----4-----4-|
|---------------------------------|
|-3-------------------------------|
           heart
|--------2-----------2--------------|
|--2-----------2-----------2--------|
|----3-----3-----3-----3-----3------|
|------4-----4-----4-----4-----4----|
|-----------------------------------|
|-2---------------------------------|


Chorus 2:

         you have me
|---------6-----------6-----------|
|---6-----------6-----------6-----|
|-----7-----7-----7-----7-----7---|
|-------8-----8-----8-----8-----8-|
|---------------------------------|
|-6-------------------------------|
        you have me
|---------6----------6-----------|
|---4-----------4----------4-----|
|-----5-----5-----5----5-----5---|
|-------6-----6-----6----6-----6-|
|--------------------------------|
|-4------------------------------|
           you have my
|---------3-----------3-----------|
|---3-----------3-----------3-----|
|-----3-----3-----3-----3-----3---|
|-------4-----4-----4-----4-----4-|
|---------------------------------|
|-3-------------------------------|
           heart completely
|--------2-----------2--------------|
|--2-----------2-----------2--------|
|----3-----3-----3-----3-----3------|
|------4-----4-----4-----4-----4----|
|-----------------------------------|
|-2---------------------------------|


Chorus 2:

         ahhhhhhh
|---------6-----------6-----------|
|---6-----------6-----------6-----|
|-----7-----7-----7-----7-----7---|
|-------8-----8-----8-----8-----8-|
|---------------------------------|
|-6-------------------------------|
        ahhhhhhh
|---------6----------6-----------|
|---4-----------4----------4-----|
|-----5-----5-----5----5-----5---|
|-------6-----6-----6----6-----6-|
|--------------------------------|
|-4------------------------------|
           ahhhhhh
|---------3-----------3-----------|
|---3-----------3-----------3-----|
|-----3-----3-----3-----3-----3---|
|-------4-----4-----4-----4-----4-|
|---------------------------------|
|-3-------------------------------|
           ahh
|--------2-----------2--------------|
|--2-----------2-----------2--------|
|----3-----3-----3-----3-----3------|
|------4-----4-----4-----4-----4----|
|-----------------------------------|
|-2---------------------------------|


Chorus 2:

         you have me
|---------6-----------6-----------|
|---6-----------6-----------6-----|
|-----7-----7-----7-----7-----7---|
|-------8-----8-----8-----8-----8-|
|---------------------------------|
|-6-------------------------------|
        you have me
|---------6----------6-----------|
|---4-----------4----------4-----|
|-----5-----5-----5----5-----5---|
|-------6-----6-----6----6-----6-|
|--------------------------------|
|-4------------------------------|
           you have my
|---------3-----------3-----------|
|---3-----------3-----------3-----|
|-----3-----3-----3-----3-----3---|
|-------4-----4-----4-----4-----4-|
|---------------------------------|
|-3-------------------------------|
           heart completely
|--------2-----------2--------------|
|--2-----------2-----------2--------|
|----3-----3-----3-----3-----3------|
|------4-----4-----4-----4-----4----|
|-----------------------------------|
|-2---------------------------------|
Tap to rate this tab
# A B C D E F G H I J K L M N O P Q R S T U V W X Y Z