Song name
# A B C D E F G H I J K L M N O P Q R S T U V W X Y Z

Gungor - I Am Mountain tab

================================================================================================
                                                      I Am Mountain - Gungor
================================================================================================
Tabbed by: SamtheMan
E-mail: georizzo@yahoo.com

Tuning: D A D G B e (Drop D)

I heard this song at a Gungor concert a couple months back and wanted to tab it out while
simultaneously learning it. Basically I tabbed the song out by ear using the album version
because all the live videos I could find were too far away to observe his hands. I did not
tab out the reverby lead guitar in the background because Michael does not play it live
and it is random and easy to figure out if you care to learn it. If there are any questions,
or comments, email me.

Intro
Tap this with the piano
   T   T   T   T   T   T   T   T
e|-9p0-9p0-9p0-9p0-9p0-9p0-9p0-9p0-|
B|---------------------------------|
G|---------------------------------|
D|---------------------------------|
A|---------------------------------|
D|---------------------------------|

After the fourth time, repeat
   T   T   T   T   T   T  P
e|-9p0-9p0-9p0-9p0-9p0-------------|
B|---------------------9~~p5p4h5---|
G|---------------------------------|
D|---------------------------------|
A|---------------------------------|
D|---------------------------------|

Verse 1
The funky riff comes in on top of the tapping lick (right hand damping)
e|---------------------------------------------------------------------------|
B|--------------------4--5-5---5--4--4-4-------------------------------------|
G|-6-6-4--7-4--6-4--6-4--6-6---6--4--4-4-------------------------------------|
D|-7-7-6--7-6--7-6--7--------------------------------------------------------|
A|---------------------------------------------------------------------------|
D|---------------------------------------------------------------------------|
   . . .  . .  . .  . .  . .   .  .  . .

e|---------------------------------------------------------------------------|
B|--------------------------------------4-5-5-4--5-4--55-4-5-4-5-44---4------|
G|-6-6-4--6----6--6---6-6-4--7-4--6---6-4-6-6-4--6-4--66-4-6-4-6-44-4-4------|
D|-7-7-6--7----7--7---7-7-6--7-6--7---7-----------------------------6--------|
A|---------------------------------------------------------------------------|
D|---------------------------------------------------------------------------|
   . . .  .    .  .   . . .  . .  .   . . . . .  . .  .. . . . . .. . .

Cont.
e|----------------------------------|
B|-4-4---4--------------------------|
G|-4-4-4-4--------------------------|
D|-----6----------------------------|
A|----------------------------------|
D|----------------------------------|
   . . . .

Transition Lick 1
e|--------------------|
B|-----4--------------|
G|-4---4h6p4-4--------|
D|-4h6-------6--------|
A|--------------------|
D|--------------------|

Transition Lick 2
e|--------------------|
B|--------------------|
G|-4-4-4-4-4-4-4------|
D|-6-6-6-6-6-6-6------|
A|--------------------|
D|--------------------|

Chorus
(Strum, pause, strike again and strum)
e|-------------------|
B|-5-----------------|
G|-4-----------------|
D|-2-----------------|
A|-2-----------------|
D|-2-----------------|

Verse 2
(Come into the second verse with this, then pause)
e|---------------------------------------------------------------------------|
B|--------------------4--5-5-4--5-4--4---------------------------------------|
G|-6-6-4--7-4--6-4--6-4--6-6-4--6-4--4--4---4-4------------------------------|
D|-7-7-6--7-6--7-6--7-------------------4h6---6p4----------------------------|
A|---------------------------------------------------------------------------|
D|---------------------------------------------------------------------------|
   . . .  . .  . .  . .  . . .  . .  .

After the pause, come in with the tapping lick
   T   T   T   T   T   T  P
e|-9p0-9p0-9p0-9p0-9p0-------------|
B|---------------------9~~p5p4h5---|
G|---------------------------------|
D|---------------------------------|
A|---------------------------------|
D|---------------------------------|

Then back to the funky riff again
e|---------------------------------------------------------------------------|
B|--------------------4--5-5---5--4--4-4-------------------------------------|
G|-6-6-4--7-4--6-4--6-4--6-6---6--4--4-4-------------------------------------|
D|-7-7-6--7-6--7-6--7--------------------------------------------------------|
A|---------------------------------------------------------------------------|
D|---------------------------------------------------------------------------|
   . . .  . .  . .  . .  . .   .  .  . .

e|---------------------------------------------------------------------------|
B|--------------------------------------4-5-5-4--5-4--55-4-5-4-5-44---4------|
G|-6-6-4--6----6--6---6-6-4--7-4--6---6-4-6-6-4--6-4--66-4-6-4-6-44-4-4------|
D|-7-7-6--7----7--7---7-7-6--7-6--7---7-----------------------------6--------|
A|---------------------------------------------------------------------------|
D|---------------------------------------------------------------------------|
   . . .  .    .  .   . . .  . .  .   . . . . .  . .  .. . . . . .. . .

Cont.
e|----------------------------------|
B|-4-4---4--------------------------|
G|-4-4-4-4--------------------------|
D|-----6----------------------------|
A|----------------------------------|
D|----------------------------------|
   . . . .

(The lick and riff alternate until the chorus)

Chorus
(Strum, pause, strike and strum an A chord this time around!)
e|-----------------|
B|-5---------------|
G|-4---------------|
D|-2---------------|
A|-2---------------|
D|-2---------------|

e|-----------------|
B|-2---------------|
G|-2---------------|
D|-2---------------|
A|-0---------------|
D|-----------------|

Bridge
e|---------------------------------------------------------------------------|
B|---2--2--2--2--2--2--2--2/5--5--5--5--5--5--5--5-\4--4--4--4--4--4--4--4---|
G|---------------------------------------------------------------------------|
D|---------------------------------------------------------------------------|
A|-0--0--0--0--0--0--0--0-/4--4--4--4--4--4--4--4-\2--2--2--2--2--2--2--2----|
D|---------------------------------------------------------------------------|

Cont.
---------------------------|
---4--4--4--4--4--4--4--4--|
---------------------------|
---------------------------|
-2--2--2--2--2--2--2--2----|
---------------------------|

Bridge Pt. 2
Same as before with a beat removed from before the last measure (pay attention)
e|---------------------------------------------------------------------------|
B|---2--2--2--2--2--2--2--2-/5--5--5--5--5--5--5-\4--4--4--4--4--4--4--4-----|
G|---------------------------------------------------------------------------|
D|---------------------------------------------------------------------------|
A|-0--0--0--0--0--0--0--0-/4--4--4--4--4--4--4--\2--2--2--2--2--2--2--2------|
D|---------------------------------------------------------------------------|

Cont.
---------------------------|
---4--4--4--4--4--4--4--4--|
---------------------------|
---------------------------|
-2--2--2--2--2--2--2--2----|
---------------------------|

Chorus
You should know the drill by now.
e|-----------------|
B|-5---------------|
G|-4---------------|
D|-2---------------|
A|-2---------------|
D|-2---------------|

e|-----------------|
B|-2---------------|
G|-2---------------|
D|-2---------------|
A|-0---------------|
D|-----------------|

=================================================================================================

| /  slide up
| \  slide down
| h  hammer-on
| p  pull-off
| ~  vibrato
| <> harmonic
| x  Palm mute
| tp tremolo Pick
| b  bend
| r  release bend
| T  Right hand tap
| P  Right hand pull-off
| .  damping

===============================================================================================
Tap to rate this tab
 
# A B C D E F G H I J K L M N O P Q R S T U V W X Y Z