Song name
# A B C D E F G H I J K L M N O P Q R S T U V W X Y Z

Guns N Roses - Monopolizer tab

BY EMANNO

INTRO X3
|--------------------------------------------------------------------------|
|--5~-5-3--232--5~-5-3-232--5~-5-3-232-3-3-5-------------------------------|
|--------------------------------------------------------------------------|
|--------------------------------------------------------------------------|
|--------------------------------------------------------------------------|
|--------------------------------------------------------------------------|

CHORUS X2
|--0--0-0--000--0--0-0-000--0--0-0-000-0-0-0-------------------------------|
|--5~-5-3--232--5~-5-3-232--5~-5-3-232-3-3-5-------------------------------|
|--5--5-3--232--5--5-3-232--5--5-3-232-3-3-5-------------------------------|
|--------------------------------------------------------------------------|
|--------------------------------------------------------------------------|
|--------------------------------------------------------------------------|

SOLO X4
|--0--0-0--000--0--0-0-000--0--0-0-000-0-0-0-------------------------------|
|--5~-5-3--232--5~-5-3-232--5~-5-3-232-3-3-5-------------------------------|
|--5--5-3--232--5--5-3-232--5--5-3-232-3-3-5-------------------------------|
|--3-3-3-3-4-4-4-4-3-3-3-3-4-4-4-4-3-3-3-3-4-4-4-4-3-3-3-3-3-3-----12------|
|------------------------------------------------------------------12------|
|-0-0-0-0-2-2-2-2-0-0-0-0-2-2-2-2-0-0-0-0-2-2-2-2-0-0-0-0-0-0------12------|

VERSE
|--------------------------------------------------------------------------|
|--5~-5-3--232--5~-5-3-232--5~-5-3-232-3-3-5-------------------------------|
|--------------------------------------------------------------------------|
|--------------------------------------------------------------------------|
|--------------------------------------------------------------------------|
|--------------------------------------------------------------------------|

ORDER That IT GOES IN:

INTRO
CHORUS
VERSEX4
CHORUS
SOLO
CHORUS
VERSE (very quiet and only 2 times)

HAVE FUN

Tap to rate this tab
# A B C D E F G H I J K L M N O P Q R S T U V W X Y Z