Guitaretab - guitar tabs
Song name
# A B C D E F G H I J K L M N O P Q R S T U V W X Y Z

Guns N Roses - Somewhere Over The Rainbow tab

Well i just started, so this is just the beginning of the song.
If you wanna know where to bend download the song, its worth it. This
is just the basic outline.


/=slide
b=bend

-8------------------------8-----------/5---------------------------| (2x)
-----------------------------------------9-8-6-4-6-8-6-3-4-8/4-3---|
---11-13-10---6-8-10-11-----8--11--6-----------------------------3-|
-------------------------------------------------------------------|
-------------------------------------------------------------------|
-------------------------------------------------------------------|

-6---6---6---6---6----8----8----8----8---8--10--|
---8---8---8---8---10---10---10---10------------|
------------------------------------------------|
------------------------------------------------|
------------------------------------------------|
------------------------------------------------|

-6---6---6---6---6----8----8----8----8---9/-13b-
[ Tab from: http://www.guitaretab.com/g/guns-n-roses/125082.html ]
---8---8---8---8---10---10---10---10------------|
------------------------------------------------|
------------------------------------------------|
------------------------------------------------|
------------------------------------------------|

-8------------------------8-----------/5----------------------------|
-----------------------------------------9-8-6-4-6-8-6-3-4-8/4-3----|
---11-13-10---6-8-10-11-----8--11--6-----------------------------3--|
--------------------------------------------------------------------|
--------------------------------------------------------------------|
--------------------------------------------------------------------|


-8------------------------8-----------/5---------------------------|
-----------------------------------------9-8-6-4-6-8-6-3-4-8/4-3---|
---11-18-10---6-8-10-11-----8--11--6-----------------------------3-|
-------------------------------------------------------------------|
-------------------------------------------------------------------|
-------------------------------------------------------------------|

Thats all i know right now but ill try and do more. Hope you like it
and its bout time someone did this song, and im gald its me.

Tabbed by Frank Aaron a.k.a Lousass
Related for Somewhere Over The Rainbow tab
Advertisement will be closed in 10 seconds