Song name
# A B C D E F G H I J K L M N O P Q R S T U V W X Y Z

Guns N Roses - Street Of Dreams tab

This isn't perfect so you are welcome to comment and improve =D
Guns N' Roses - This I Love
Solo By Robin Finck. I Haven't Included Bucketheads solo that follows this one.
Tuning: Half-Step Down


e|-----------------------------------------------------------13-|
B|-15br-13--13p12h13-12h13-12----------15-----------------------|
G|----------------------------14-12-14b--14b-14br-12-14-12------|
D|---------------------------------------------------------15---|
A|--------------------------------------------------------------|
E|--------------------------------------------------------------|

                        Sounds A Bit Wrong
                   |                         |
e|---------------------------------------------------------------------------------|
B|------------------------12--12-15-17-17br--/15-13p12-13-12------15---------------|
G|------12-14-12-12--14-14----------------------------------12--14b-14br12-14------|
D|-14h15-----------14-----------------------------------------12--------------14-13|
A|---------------------------------------------------------------------------------|
E|---------------------------------------------------------------------------------|
Tap to rate this tab
# A B C D E F G H I J K L M N O P Q R S T U V W X Y Z